  0
SECTION
  2
HEADER
  9
$ACADVER
  1
AC1027
  9
$ACADMAINTVER
 70
   125
  9
$DWGCODEPAGE
  3
ANSI_1252
  9
$LASTSAVEDBY
  1
tburke
  9
$REQUIREDVERSIONS
160
                 0
  9
$INSBASE
 10
0.0
 20
0.0
 30
0.0
  9
$EXTMIN
 10
1137.286397834872
 20
3026.195085712469
 30
-0.0015258207003583
  9
$EXTMAX
 10
4224.353042040431
 20
4937.733777311784
 30
0.0000000349246037
  9
$LIMMIN
 10
0.0
 20
0.0
  9
$LIMMAX
 10
8400.0
 20
5940.0
  9
$ORTHOMODE
 70
     0
  9
$REGENMODE
 70
     1
  9
$FILLMODE
 70
     1
  9
$QTEXTMODE
 70
     0
  9
$MIRRTEXT
 70
     1
  9
$LTSCALE
 40
20.0
  9
$ATTMODE
 70
     1
  9
$TEXTSIZE
 40
63.5
  9
$TRACEWID
 40
1.0
  9
$TEXTSTYLE
  7
Standard
  9
$CLAYER
  8
bounding box
  9
$CELTYPE
  6
ByLayer
  9
$CECOLOR
 62
   256
  9
$CELTSCALE
 40
1.0
  9
$DISPSILH
 70
     0
  9
$DIMSCALE
 40
1.0
  9
$DIMASZ
 40
52.0
  9
$DIMEXO
 40
20.0
  9
$DIMDLI
 40
3.75
  9
$DIMRND
 40
0.0
  9
$DIMDLE
 40
0.0
  9
$DIMEXE
 40
20.0
  9
$DIMTP
 40
0.0
  9
$DIMTM
 40
0.0
  9
$DIMTXT
 40
63.5
  9
$DIMCEN
 40
2.5
  9
$DIMTSZ
 40
0.0
  9
$DIMTOL
 70
     0
  9
$DIMLIM
 70
     0
  9
$DIMTIH
 70
     1
  9
$DIMTOH
 70
     1
  9
$DIMSE1
 70
     0
  9
$DIMSE2
 70
     0
  9
$DIMTAD
 70
     1
  9
$DIMZIN
 70
     0
  9
$DIMBLK
  1

  9
$DIMASO
 70
     1
  9
$DIMSHO
 70
     1
  9
$DIMPOST
  1

  9
$DIMAPOST
  1

  9
$DIMALT
 70
     0
  9
$DIMALTD
 70
     3
  9
$DIMALTF
 40
0.0393700787401575
  9
$DIMLFAC
 40
1.0
  9
$DIMTOFL
 70
     1
  9
$DIMTVP
 40
0.0
  9
$DIMTIX
 70
     0
  9
$DIMSOXD
 70
     0
  9
$DIMSAH
 70
     0
  9
$DIMBLK1
  1

  9
$DIMBLK2
  1

  9
$DIMSTYLE
  2
ISO-25
  9
$DIMCLRD
 70
     0
  9
$DIMCLRE
 70
     0
  9
$DIMCLRT
 70
     0
  9
$DIMTFAC
 40
1.0
  9
$DIMGAP
 40
30.48
  9
$DIMJUST
 70
     0
  9
$DIMSD1
 70
     0
  9
$DIMSD2
 70
     0
  9
$DIMTOLJ
 70
     0
  9
$DIMTZIN
 70
     0
  9
$DIMALTZ
 70
     0
  9
$DIMALTTZ
 70
     0
  9
$DIMUPT
 70
     0
  9
$DIMDEC
 70
     2
  9
$DIMTDEC
 70
     2
  9
$DIMALTU
 70
     2
  9
$DIMALTTD
 70
     3
  9
$DIMTXSTY
  7
Standard
  9
$DIMAUNIT
 70
     0
  9
$DIMADEC
 70
     2
  9
$DIMALTRND
 40
0.0
  9
$DIMAZIN
 70
     0
  9
$DIMDSEP
 70
    44
  9
$DIMATFIT
 70
     3
  9
$DIMFRAC
 70
     0
  9
$DIMLDRBLK
  1

  9
$DIMLUNIT
 70
     2
  9
$DIMLWD
 70
    -2
  9
$DIMLWE
 70
    -2
  9
$DIMTMOVE
 70
     0
  9
$DIMFXL
 40
1.0
  9
$DIMFXLON
 70
     0
  9
$DIMJOGANG
 40
0.7853981633974483
  9
$DIMTFILL
 70
     0
  9
$DIMTFILLCLR
 70
     0
  9
$DIMARCSYM
 70
     0
  9
$DIMLTYPE
  6

  9
$DIMLTEX1
  6

  9
$DIMLTEX2
  6

  9
$DIMTXTDIRECTION
 70
     0
  9
$LUNITS
 70
     2
  9
$LUPREC
 70
     2
  9
$SKETCHINC
 40
1.0
  9
$FILLETRAD
 40
10.0
  9
$AUNITS
 70
     0
  9
$AUPREC
 70
     2
  9
$MENU
  1
.
  9
$ELEVATION
 40
0.0
  9
$PELEVATION
 40
0.0
  9
$THICKNESS
 40
0.0
  9
$LIMCHECK
 70
     0
  9
$CHAMFERA
 40
0.0
  9
$CHAMFERB
 40
0.0
  9
$CHAMFERC
 40
0.0
  9
$CHAMFERD
 40
0.0
  9
$SKPOLY
 70
     0
  9
$TDCREATE
 40
2456959.661388889
  9
$TDUCREATE
 40
2456959.661392558
  9
$TDUPDATE
 40
2458432.517442130
  9
$TDUUPDATE
 40
2458432.517442130
  9
$TDINDWG
 40
0.0058817014
  9
$TDUSRTIMER
 40
2456959.665049132
  9
$USRTIMER
 70
     1
  9
$ANGBASE
 50
0.0
  9
$ANGDIR
 70
     0
  9
$PDMODE
 70
     0
  9
$PDSIZE
 40
-1.0
  9
$PLINEWID
 40
0.0
  9
$SPLFRAME
 70
     0
  9
$SPLINETYPE
 70
     6
  9
$SPLINESEGS
 70
     8
  9
$HANDSEED
  5
435
  9
$SURFTAB1
 70
     6
  9
$SURFTAB2
 70
     6
  9
$SURFTYPE
 70
     6
  9
$SURFU
 70
     6
  9
$SURFV
 70
     6
  9
$UCSBASE
  2

  9
$UCSNAME
  2

  9
$UCSORG
 10
0.0
 20
0.0
 30
0.0
  9
$UCSXDIR
 10
1.0
 20
0.0
 30
0.0
  9
$UCSYDIR
 10
0.0
 20
1.0
 30
0.0
  9
$UCSORTHOREF
  2

  9
$UCSORTHOVIEW
 70
     0
  9
$UCSORGTOP
 10
0.0
 20
0.0
 30
0.0
  9
$UCSORGBOTTOM
 10
0.0
 20
0.0
 30
0.0
  9
$UCSORGLEFT
 10
0.0
 20
0.0
 30
0.0
  9
$UCSORGRIGHT
 10
0.0
 20
0.0
 30
0.0
  9
$UCSORGFRONT
 10
0.0
 20
0.0
 30
0.0
  9
$UCSORGBACK
 10
0.0
 20
0.0
 30
0.0
  9
$PUCSBASE
  2

  9
$PUCSNAME
  2

  9
$PUCSORG
 10
0.0
 20
0.0
 30
0.0
  9
$PUCSXDIR
 10
1.0
 20
0.0
 30
0.0
  9
$PUCSYDIR
 10
0.0
 20
1.0
 30
0.0
  9
$PUCSORTHOREF
  2

  9
$PUCSORTHOVIEW
 70
     0
  9
$PUCSORGTOP
 10
0.0
 20
0.0
 30
0.0
  9
$PUCSORGBOTTOM
 10
0.0
 20
0.0
 30
0.0
  9
$PUCSORGLEFT
 10
0.0
 20
0.0
 30
0.0
  9
$PUCSORGRIGHT
 10
0.0
 20
0.0
 30
0.0
  9
$PUCSORGFRONT
 10
0.0
 20
0.0
 30
0.0
  9
$PUCSORGBACK
 10
0.0
 20
0.0
 30
0.0
  9
$USERI1
 70
     0
  9
$USERI2
 70
     0
  9
$USERI3
 70
     0
  9
$USERI4
 70
     0
  9
$USERI5
 70
     0
  9
$USERR1
 40
0.0
  9
$USERR2
 40
0.0
  9
$USERR3
 40
0.0
  9
$USERR4
 40
0.0
  9
$USERR5
 40
0.0
  9
$WORLDVIEW
 70
     1
  9
$SHADEDGE
 70
     3
  9
$SHADEDIF
 70
    70
  9
$TILEMODE
 70
     1
  9
$MAXACTVP
 70
    64
  9
$PINSBASE
 10
0.0
 20
0.0
 30
0.0
  9
$PLIMCHECK
 70
     0
  9
$PEXTMIN
 10
1.000000000000000E+20
 20
1.000000000000000E+20
 30
1.000000000000000E+20
  9
$PEXTMAX
 10
-1.000000000000000E+20
 20
-1.000000000000000E+20
 30
-1.000000000000000E+20
  9
$PLIMMIN
 10
0.0
 20
0.0
  9
$PLIMMAX
 10
420.0
 20
297.0
  9
$UNITMODE
 70
     0
  9
$VISRETAIN
 70
     1
  9
$PLINEGEN
 70
     0
  9
$PSLTSCALE
 70
     1
  9
$TREEDEPTH
 70
  3020
  9
$CMLSTYLE
  2
Standard
  9
$CMLJUST
 70
     0
  9
$CMLSCALE
 40
20.0
  9
$PROXYGRAPHICS
 70
     1
  9
$MEASUREMENT
 70
     1
  9
$CELWEIGHT
370
    -1
  9
$ENDCAPS
280
     0
  9
$JOINSTYLE
280
     0
  9
$LWDISPLAY
290
     1
  9
$INSUNITS
 70
     4
  9
$HYPERLINKBASE
  1

  9
$STYLESHEET
  1

  9
$XEDIT
290
     1
  9
$CEPSNTYPE
380
     0
  9
$PSTYLEMODE
290
     1
  9
$FINGERPRINTGUID
  2
{6D674E81-9623-450E-ADE1-C69CFCEE6B38}
  9
$VERSIONGUID
  2
{3FD0F092-BF09-FA46-AA74-E9C4A8088A97}
  9
$EXTNAMES
290
     1
  9
$PSVPSCALE
 40
0.0
  9
$OLESTARTUP
290
     0
  9
$SORTENTS
280
   127
  9
$INDEXCTL
280
     0
  9
$HIDETEXT
280
     1
  9
$XCLIPFRAME
280
     0
  9
$HALOGAP
280
     0
  9
$OBSCOLOR
 70
   257
  9
$OBSLTYPE
280
     0
  9
$INTERSECTIONDISPLAY
280
     0
  9
$INTERSECTIONCOLOR
 70
   257
  9
$DIMASSOC
280
     2
  9
$PROJECTNAME
  1

  9
$CAMERADISPLAY
290
     0
  9
$LENSLENGTH
 40
50.0
  9
$CAMERAHEIGHT
 40
0.0
  9
$STEPSPERSEC
 40
2.0
  9
$STEPSIZE
 40
6.0
  9
$3DDWFPREC
 40
2.0
  9
$PSOLWIDTH
 40
0.25
  9
$PSOLHEIGHT
 40
4.0
  9
$LOFTANG1
 40
1.570796326794896
  9
$LOFTANG2
 40
1.570796326794896
  9
$LOFTMAG1
 40
0.0
  9
$LOFTMAG2
 40
0.0
  9
$LOFTPARAM
 70
     7
  9
$LOFTNORMALS
280
     1
  9
$LATITUDE
 40
37.795
  9
$LONGITUDE
 40
-122.394
  9
$NORTHDIRECTION
 40
0.0
  9
$TIMEZONE
 70
 -8000
  9
$LIGHTGLYPHDISPLAY
280
     1
  9
$TILEMODELIGHTSYNCH
280
     1
  9
$CMATERIAL
347
44
  9
$SOLIDHIST
280
     0
  9
$SHOWHIST
280
     1
  9
$DWFFRAME
280
     2
  9
$DGNFRAME
280
     0
  9
$REALWORLDSCALE
290
     1
  9
$INTERFERECOLOR
 62
     1
  9
$INTERFEREOBJVS
345
3C5
  9
$INTERFEREVPVS
346
3C2
  9
$CSHADOW
280
     0
  9
$SHADOWPLANELOCATION
 40
0.0
  0
ENDSEC
  0
SECTION
  2
CLASSES
  0
CLASS
  1
ACDBDICTIONARYWDFLT
  2
AcDbDictionaryWithDefault
  3
ObjectDBX Classes
 90
        0
 91
        1
280
     0
281
     0
  0
CLASS
  1
VISUALSTYLE
  2
AcDbVisualStyle
  3
ObjectDBX Classes
 90
     4095
 91
       24
280
     0
281
     0
  0
CLASS
  1
MATERIAL
  2
AcDbMaterial
  3
ObjectDBX Classes
 90
     1153
 91
        3
280
     0
281
     0
  0
CLASS
  1
SCALE
  2
AcDbScale
  3
ObjectDBX Classes
 90
     1153
 91
       33
280
     0
281
     0
  0
CLASS
  1
SUN
  2
AcDbSun
  3
SCENEOE
 90
     1153
 91
        0
280
     0
281
     0
  0
CLASS
  1
DICTIONARYVAR
  2
AcDbDictionaryVar
  3
ObjectDBX Classes
 90
        0
 91
        9
280
     0
281
     0
  0
CLASS
  1
TABLESTYLE
  2
AcDbTableStyle
  3
ObjectDBX Classes
 90
     4095
 91
        1
280
     0
281
     0
  0
CLASS
  1
RASTERVARIABLES
  2
AcDbRasterVariables
  3
ISM
 90
        0
 91
        1
280
     0
281
     0
  0
CLASS
  1
CELLSTYLEMAP
  2
AcDbCellStyleMap
  3
ObjectDBX Classes
 90
     1152
 91
        1
280
     0
281
     0
  0
CLASS
  1
MLEADERSTYLE
  2
AcDbMLeaderStyle
  3
ACDB_MLEADERSTYLE_CLASS
 90
     4095
 91
        1
280
     0
281
     0
  0
CLASS
  1
ACDBSECTIONVIEWSTYLE
  2
AcDbSectionViewStyle
  3
ObjectDBX Classes
 90
     1025
 91
        1
280
     0
281
     0
  0
CLASS
  1
ACDBDETAILVIEWSTYLE
  2
AcDbDetailViewStyle
  3
ObjectDBX Classes
 90
     1025
 91
        1
280
     0
281
     0
  0
ENDSEC
  0
SECTION
  2
TABLES
  0
TABLE
  2
VPORT
  5
8
330
0
100
AcDbSymbolTable
 70
     1
1001
ACAD
1000
DbSaveVer
1071
      123
  0
VPORT
  5
29
330
8
100
AcDbSymbolTableRecord
100
AcDbViewportTableRecord
  2
*Active
 70
     0
 10
0.0
 20
0.0
 11
1.0
 21
1.0
 12
2680.819719937652
 22
3981.964431512126
 13
0.0
 23
0.0
 14
10.0
 24
10.0
 15
10.0
 25
10.0
 16
0.0
 26
0.0
 36
1.0
 17
0.0
 27
0.0
 37
0.0
 40
1925.733285843864
 41
1.99628252788104
 42
50.0
 43
0.0
 44
0.0
 50
0.0
 51
0.0
 71
    16
 72
  2000
 73
     1
 74
     3
 75
     0
 76
     0
 77
     0
 78
     0
281
     0
 65
     1
110
0.0
120
0.0
130
0.0
111
1.0
121
0.0
131
0.0
112
0.0
122
1.0
132
0.0
 79
     0
146
0.0
348
3C1
 60
     3
 61
     5
292
     1
282
     1
141
0.0
142
0.0
 63
   250
421
  3355443
1001
ACAD_NAV_VCDISPLAY
1070
     3
  0
ENDTAB
  0
TABLE
  2
LTYPE
  5
5
330
0
100
AcDbSymbolTable
 70
     8
  0
LTYPE
  5
14
330
5
100
AcDbSymbolTableRecord
100
AcDbLinetypeTableRecord
  2
ByBlock
 70
     0
  3

 72
    65
 73
     0
 40
0.0
  0
LTYPE
  5
15
330
5
100
AcDbSymbolTableRecord
100
AcDbLinetypeTableRecord
  2
ByLayer
 70
     0
  3
Solid line
 72
    65
 73
     0
 40
0.0
  0
LTYPE
  5
16
330
5
100
AcDbSymbolTableRecord
100
AcDbLinetypeTableRecord
  2
Continuous
 70
     0
  3
Solid line
 72
    65
 73
     0
 40
0.0
  0
LTYPE
  5
6A
330
5
100
AcDbSymbolTableRecord
100
AcDbLinetypeTableRecord
  2
SLD-Solid
 70
     0
  3
SolidWorks Line Style
 72
    65
 73
     0
 40
0.0
  0
LTYPE
  5
6B
330
5
100
AcDbSymbolTableRecord
100
AcDbLinetypeTableRecord
  2
SLD-Dashed
 70
     0
  3
SolidWorks Line Style
 72
    65
 73
     2
 40
1.905
 49
1.27
 74
     0
 49
-0.635
 74
     0
  0
LTYPE
  5
6C
330
5
100
AcDbSymbolTableRecord
100
AcDbLinetypeTableRecord
  2
SLD-Phantom
 70
     0
  3
SolidWorks Line Style
 72
    65
 73
     6
 40
12.7
 49
6.349999999999999
 74
     0
 49
-1.27
 74
     0
 49
1.27
 74
     0
 49
-1.27
 74
     0
 49
1.27
 74
     0
 49
-1.27
 74
     0
  0
LTYPE
  5
6D
330
5
100
AcDbSymbolTableRecord
100
AcDbLinetypeTableRecord
  2
SLD-Chain
 70
     0
  3
SolidWorks Line Style
 72
    65
 73
     4
 40
10.16
 49
6.349999999999999
 74
     0
 49
-1.27
 74
     0
 49
1.27
 74
     0
 49
-1.27
 74
     0
  0
LTYPE
  5
6E
330
5
100
AcDbSymbolTableRecord
100
AcDbLinetypeTableRecord
  2
SLD-Center
 70
     0
  3
SolidWorks Line Style
 72
    65
 73
     4
 40
19.05
 49
15.24
 74
     0
 49
-1.27
 74
     0
 49
1.27
 74
     0
 49
-1.27
 74
     0
  0
LTYPE
  5
6F
330
5
100
AcDbSymbolTableRecord
100
AcDbLinetypeTableRecord
  2
SLD-Stitch
 70
     0
  3
SolidWorks Line Style
 72
    65
 73
     2
 40
0.635
 49
0.0
 74
     0
 49
-0.635
 74
     0
  0
LTYPE
  5
70
330
5
100
AcDbSymbolTableRecord
100
AcDbLinetypeTableRecord
  2
SLD-Thin-Thick-Chain
 70
     0
  3
SolidWorks Line Style
 72
    65
 73
     4
 40
10.16
 49
6.349999999999999
 74
     0
 49
-1.27
 74
     0
 49
1.27
 74
     0
 49
-1.27
 74
     0
  0
ENDTAB
  0
TABLE
  2
LAYER
  5
2
102
{ACAD_XDICTIONARY
360
3A0
102
}
330
0
100
AcDbSymbolTable
 70
     4
  0
LAYER
  5
10
102
{ACAD_XDICTIONARY
360
418
102
}
330
2
100
AcDbSymbolTableRecord
100
AcDbLayerTableRecord
  2
0
 70
     0
 62
     7
  6
Continuous
370
    -3
390
F
347
46
348
0
  0
LAYER
  5
71
102
{ACAD_XDICTIONARY
360
41A
102
}
330
2
100
AcDbSymbolTableRecord
100
AcDbLayerTableRecord
  2
FORMAT
 70
     0
 62
     7
  6
SLD-Solid
370
    -3
390
F
347
46
348
0
  0
LAYER
  5
3A3
102
{ACAD_XDICTIONARY
360
41C
102
}
330
2
100
AcDbSymbolTableRecord
100
AcDbLayerTableRecord
  2
bath
 70
     0
 62
     6
  6
Continuous
370
    -3
390
F
347
46
348
0
1001
AcAecLayerStandard
1000

1000

  0
LAYER
  5
3A5
102
{ACAD_XDICTIONARY
360
41E
102
}
330
2
100
AcDbSymbolTableRecord
100
AcDbLayerTableRecord
  2
bounding box
 70
     0
 62
     1
  6
Continuous
370
    -3
390
F
347
46
348
0
1001
AcAecLayerStandard
1000

1000

  0
ENDTAB
  0
TABLE
  2
STYLE
  5
3
330
0
100
AcDbSymbolTable
 70
     3
  0
STYLE
  5
11
330
3
100
AcDbSymbolTableRecord
100
AcDbTextStyleTableRecord
  2
Standard
 70
     0
 40
0.0
 41
1.0
 50
0.0
 71
     0
 42
63.5
  3
txt
  4

  0
STYLE
  5
9F
330
3
100
AcDbSymbolTableRecord
100
AcDbTextStyleTableRecord
  2
SLDTEXTSTYLE0
 70
     0
 40
0.0
 41
0.75
 50
0.0
 71
     0
 42
63.5
  3
TXT
  4

  0
STYLE
  5
B9
330
3
100
AcDbSymbolTableRecord
100
AcDbTextStyleTableRecord
  2
SLDTEXTSTYLE1
 70
     0
 40
0.0
 41
0.605
 50
0.0
 71
     0
 42
63.5
  3
TXT
  4

  0
ENDTAB
  0
TABLE
  2
VIEW
  5
6
330
0
100
AcDbSymbolTable
 70
     1
  0
ENDTAB
  0
TABLE
  2
UCS
  5
7
330
0
100
AcDbSymbolTable
 70
     0
  0
ENDTAB
  0
TABLE
  2
APPID
  5
9
330
0
100
AcDbSymbolTable
 70
     4
  0
APPID
  5
12
330
9
100
AcDbSymbolTableRecord
100
AcDbRegAppTableRecord
  2
ACAD
 70
     0
  0
APPID
  5
3A4
330
9
100
AcDbSymbolTableRecord
100
AcDbRegAppTableRecord
  2
AcAecLayerStandard
 70
     0
  0
APPID
  5
3DC
330
9
100
AcDbSymbolTableRecord
100
AcDbRegAppTableRecord
  2
ACAD_EXEMPT_FROM_CAD_STANDARDS
 70
     0
  0
APPID
  5
3EA
330
9
100
AcDbSymbolTableRecord
100
AcDbRegAppTableRecord
  2
ACAD_NAV_VCDISPLAY
 70
     0
  0
ENDTAB
  0
TABLE
  2
DIMSTYLE
  5
A
330
0
100
AcDbSymbolTable
 70
     6
100
AcDbDimStyleTable
 71
     1
340
27
  0
DIMSTYLE
105
27
330
A
100
AcDbSymbolTableRecord
100
AcDbDimStyleTableRecord
  2
ISO-25
 70
     0
 41
2.5
 42
0.625
 43
3.75
 44
1.25
 73
     0
 74
     0
 77
     1
 78
     8
140
2.5
141
2.5
143
0.03937007874016
147
0.625
171
     3
172
     1
271
     2
272
     2
274
     3
278
    44
283
     0
284
     8
340
11
  0
DIMSTYLE
105
FE
330
A
100
AcDbSymbolTableRecord
100
AcDbDimStyleTableRecord
  2
SLDDIMSTYLE0
 70
     0
 41
52.0
 44
0.0
 45
0.000000001
 73
     0
 74
     0
 77
     2
 78
    12
 79
     3
140
46.229736328125
147
11.55743408203125
173
     1
271
     2
272
     2
276
     2
284
    12
340
B9
  0
DIMSTYLE
105
109
330
A
100
AcDbSymbolTableRecord
100
AcDbDimStyleTableRecord
  2
SLDDIMSTYLE1
 70
     0
 41
52.0
 44
0.0
 45
0.000000001
 73
     0
 74
     0
 77
     2
 78
    12
 79
     3
140
46.229736328125
147
11.55743408203125
173
     1
271
     0
272
     2
276
     2
284
    12
340
B9
  0
DIMSTYLE
105
176
330
A
100
AcDbSymbolTableRecord
100
AcDbDimStyleTableRecord
  2
SLDDIMSTYLE2
 70
     0
 41
52.0
 44
0.0
 45
0.000000001
 73
     0
 74
     0
 77
     2
 78
    12
 79
     3
140
46.229736328125
147
11.55743408203125
173
     1
271
     0
272
     0
276
     2
284
    12
340
B9
  0
DIMSTYLE
105
20F
330
A
100
AcDbSymbolTableRecord
100
AcDbDimStyleTableRecord
  2
SLDDIMSTYLE3
 70
     0
 41
52.0
 44
0.0
 78
    12
 79
     3
140
46.229736328125
144
20.0
147
11.55743408203125
173
     1
272
     0
276
     2
284
    12
340
B9
  0
DIMSTYLE
105
21B
330
A
100
AcDbSymbolTableRecord
100
AcDbDimStyleTableRecord
  2
SLDDIMSTYLE4
 70
     0
 41
52.0
 44
0.0
 45
0.000000001
 73
     0
 74
     0
 77
     2
 78
    12
 79
     3
140
46.229736328125
147
11.55743408203125
172
     1
173
     1
271
     2
272
     2
276
     2
284
    12
289
     0
340
B9
  0
ENDTAB
  0
TABLE
  2
BLOCK_RECORD
  5
1
330
0
100
AcDbSymbolTable
 70
    18
  0
BLOCK_RECORD
  5
1F
330
1
100
AcDbSymbolTableRecord
100
AcDbBlockTableRecord
  2
*Model_Space
340
22
 70
     0
280
     1
281
     0
  0
BLOCK_RECORD
  5
1B
330
1
100
AcDbSymbolTableRecord
100
AcDbBlockTableRecord
  2
*Paper_Space
340
1E
 70
     0
280
     1
281
     0
  0
BLOCK_RECORD
  5
23
330
1
100
AcDbSymbolTableRecord
100
AcDbBlockTableRecord
  2
*Paper_Space0
340
26
 70
     0
280
     1
281
     0
  0
BLOCK_RECORD
  5
B6
330
1
100
AcDbSymbolTableRecord
100
AcDbBlockTableRecord
  2
SW_NOTE_0
340
0
 70
     0
280
     1
281
     0
  0
BLOCK_RECORD
  5
C4
330
1
100
AcDbSymbolTableRecord
100
AcDbBlockTableRecord
  2
SW_NOTE_1
340
0
 70
     0
280
     1
281
     0
  0
BLOCK_RECORD
  5
D3
330
1
100
AcDbSymbolTableRecord
100
AcDbBlockTableRecord
  2
SW_NOTE_2
340
0
 70
     0
280
     1
281
     0
  0
BLOCK_RECORD
  5
FF
330
1
100
AcDbSymbolTableRecord
100
AcDbBlockTableRecord
  2
_D
340
0
 70
     0
280
     1
281
     0
  0
BLOCK_RECORD
  5
10A
330
1
100
AcDbSymbolTableRecord
100
AcDbBlockTableRecord
  2
_D_1
340
0
 70
     0
280
     1
281
     0
  0
BLOCK_RECORD
  5
136
330
1
100
AcDbSymbolTableRecord
100
AcDbBlockTableRecord
  2
_D_2
340
0
 70
     0
280
     1
281
     0
  0
BLOCK_RECORD
  5
177
330
1
100
AcDbSymbolTableRecord
100
AcDbBlockTableRecord
  2
_D_3
340
0
 70
     0
280
     1
281
     0
  0
BLOCK_RECORD
  5
181
330
1
100
AcDbSymbolTableRecord
100
AcDbBlockTableRecord
  2
_D_4
340
0
 70
     0
280
     1
281
     0
  0
BLOCK_RECORD
  5
18B
330
1
100
AcDbSymbolTableRecord
100
AcDbBlockTableRecord
  2
_D_5
340
0
 70
     0
280
     1
281
     0
  0
BLOCK_RECORD
  5
195
330
1
100
AcDbSymbolTableRecord
100
AcDbBlockTableRecord
  2
_D_6
340
0
 70
     0
280
     1
281
     0
  0
BLOCK_RECORD
  5
210
330
1
100
AcDbSymbolTableRecord
100
AcDbBlockTableRecord
  2
_D_7
340
0
 70
     0
280
     1
281
     0
  0
BLOCK_RECORD
  5
21C
330
1
100
AcDbSymbolTableRecord
100
AcDbBlockTableRecord
  2
_D_8
340
0
 70
     0
280
     1
281
     0
  0
BLOCK_RECORD
  5
228
330
1
100
AcDbSymbolTableRecord
100
AcDbBlockTableRecord
  2
_D_9
340
0
 70
     0
280
     1
281
     0
  0
BLOCK_RECORD
  5
232
330
1
100
AcDbSymbolTableRecord
100
AcDbBlockTableRecord
  2
_D_10
340
0
 70
     0
280
     1
281
     0
  0
BLOCK_RECORD
  5
2A5
330
1
100
AcDbSymbolTableRecord
100
AcDbBlockTableRecord
  2
_D_11
340
0
 70
     0
280
     1
281
     0
  0
BLOCK_RECORD
  5
2AE
330
1
100
AcDbSymbolTableRecord
100
AcDbBlockTableRecord
  2
_D_12
340
0
 70
     0
280
     1
281
     0
  0
BLOCK_RECORD
  5
2B8
330
1
100
AcDbSymbolTableRecord
100
AcDbBlockTableRecord
  2
_D_13
340
0
 70
     0
280
     1
281
     0
  0
ENDTAB
  0
ENDSEC
  0
SECTION
  2
BLOCKS
  0
BLOCK
  5
20
330
1F
100
AcDbEntity
  8
0
100
AcDbBlockBegin
  2
*Model_Space
 70
     0
 10
0.0
 20
0.0
 30
0.0
  3
*Model_Space
  1

  0
ENDBLK
  5
21
330
1F
100
AcDbEntity
  8
0
100
AcDbBlockEnd
  0
BLOCK
  5
1C
330
1B
100
AcDbEntity
 67
     1
  8
0
100
AcDbBlockBegin
  2
*Paper_Space
 70
     0
 10
0.0
 20
0.0
 30
0.0
  3
*Paper_Space
  1

  0
ENDBLK
  5
1D
330
1B
100
AcDbEntity
 67
     1
  8
0
100
AcDbBlockEnd
  0
BLOCK
  5
24
330
23
100
AcDbEntity
 67
     1
  8
0
100
AcDbBlockBegin
  2
*Paper_Space0
 70
     0
 10
0.0
 20
0.0
 30
0.0
  3
*Paper_Space0
  1

  0
ENDBLK
  5
25
330
23
100
AcDbEntity
 67
     1
  8
0
100
AcDbBlockEnd
  0
BLOCK
  5
B7
330
B6
100
AcDbEntity
  8
0
100
AcDbBlockBegin
  2
SW_NOTE_0
 70
     0
 10
0.0
 20
0.0
 30
0.0
  3
SW_NOTE_0
  1

  0
MTEXT
  5
BA
330
B6
100
AcDbEntity
  8
0
  6
Continuous
 62
     0
370
     0
100
AcDbMText
 10
0.0
 20
68.21316789626649
 30
0.0
 40
52.91666666666666
 41
0.0
 46
0.0
 71
     1
 72
     1
  1
VandA House
  7
SLDTEXTSTYLE1
 73
     1
 44
1.0
  0
MTEXT
  5
BB
330
B6
100
AcDbEntity
  8
0
  6
Continuous
 62
     0
370
     0
100
AcDbMText
 10
0.0
 20
-2.342386806611501
 30
0.0
 40
52.91666666666666
 41
0.0
 46
0.0
 71
     1
 72
     1
  1
Heathmill Road
  7
SLDTEXTSTYLE1
 73
     1
 44
1.0
  0
MTEXT
  5
BC
330
B6
100
AcDbEntity
  8
0
  6
Continuous
 62
     0
370
     0
100
AcDbMText
 10
0.0
 20
-72.89794150948949
 30
0.0
 40
52.91666666666666
 41
0.0
 46
0.0
 71
     1
 72
     1
  1
Wombourne
  7
SLDTEXTSTYLE1
 73
     1
 44
1.0
  0
MTEXT
  5
BD
330
B6
100
AcDbEntity
  8
0
  6
Continuous
 62
     0
370
     0
100
AcDbMText
 10
0.0
 20
-143.4534962123675
 30
0.0
 40
52.91666666666666
 41
0.0
 46
0.0
 71
     1
 72
     1
  1
West Midlands
  7
SLDTEXTSTYLE1
 73
     1
 44
1.0
  0
MTEXT
  5
BE
330
B6
100
AcDbEntity
  8
0
  6
Continuous
 62
     0
370
     0
100
AcDbMText
 10
0.0
 20
-214.0090509152455
 30
0.0
 40
52.91666666666666
 41
0.0
 46
0.0
 71
     1
 72
     1
  1
WV5 8AP
  7
SLDTEXTSTYLE1
 73
     1
 44
1.0
  0
ENDBLK
  5
B8
330
B6
100
AcDbEntity
  8
0
100
AcDbBlockEnd
  0
BLOCK
  5
C5
330
C4
100
AcDbEntity
  8
0
100
AcDbBlockBegin
  2
SW_NOTE_1
 70
     0
 10
0.0
 20
0.0
 30
0.0
  3
SW_NOTE_1
  1

  0
MTEXT
  5
C7
330
C4
100
AcDbEntity
  8
0
  6
Continuous
 62
     0
370
     0
100
AcDbMText
 10
0.0
 20
68.21316789626649
 30
0.0
 40
52.91666666666666
 41
0.0
 46
0.0
 71
     1
 72
     1
  1
Development Design
  7
SLDTEXTSTYLE1
 73
     1
 44
1.0
  0
MTEXT
  5
C8
330
C4
100
AcDbEntity
  8
0
  6
Continuous
 62
     0
370
     0
100
AcDbMText
 10
0.0
 20
-2.342386806611501
 30
0.0
 40
52.91666666666666
 41
0.0
 46
0.0
 71
     1
 72
     1
  1
Reference IA5
  7
SLDTEXTSTYLE1
 73
     1
 44
1.0
  0
MTEXT
  5
C9
330
C4
100
AcDbEntity
  8
0
  6
Continuous
 62
     0
370
     0
100
AcDbMText
 10
0.0
 20
-72.89794150948949
 30
0.0
 40
52.91666666666666
 41
0.0
 46
0.0
 71
     1
 72
     1
  1
Chamfered Rim
  7
SLDTEXTSTYLE1
 73
     1
 44
1.0
  0
ENDBLK
  5
C6
330
C4
100
AcDbEntity
  8
0
100
AcDbBlockEnd
  0
BLOCK
  5
D4
330
D3
100
AcDbEntity
  8
0
100
AcDbBlockBegin
  2
SW_NOTE_2
 70
     0
 10
0.0
 20
0.0
 30
0.0
  3
SW_NOTE_2
  1

  0
MTEXT
  5
D6
330
D3
100
AcDbEntity
  8
0
  6
Continuous
 62
     0
370
     0
100
AcDbMText
 10
0.0
 20
49.11348088531185
 30
0.0
 40
38.1
 41
0.0
 46
0.0
 71
     1
 72
     1
  1
All Dimensions in mm
  7
SLDTEXTSTYLE1
 73
     1
 44
1.0
  0
MTEXT
  5
D7
330
D3
100
AcDbEntity
  8
0
  6
Continuous
 62
     0
370
     0
100
AcDbMText
 10
0.0
 20
-8.986519138530004
 30
0.0
 40
38.1
 41
0.0
 46
0.0
 71
     1
 72
     1
  1
Do not scale from drawing
  7
SLDTEXTSTYLE1
 73
     1
 44
1.0
  0
MTEXT
  5
D8
330
D3
100
AcDbEntity
  8
0
  6
Continuous
 62
     0
370
     0
100
AcDbMText
 10
0.0
 20
-67.08651916237186
 30
0.0
 40
38.1
 41
0.0
 46
0.0
 71
     1
 72
     1
  1
If in doubt ASK!
  7
SLDTEXTSTYLE1
 73
     1
 44
1.0
  0
ENDBLK
  5
D5
330
D3
100
AcDbEntity
  8
0
100
AcDbBlockEnd
  0
BLOCK
  5
100
330
FF
100
AcDbEntity
  8
0
100
AcDbBlockBegin
  2
_D
 70
     0
 10
0.0
 20
0.0
 30
0.0
  3
_D
  1

  0
SOLID
  5
102
330
FF
100
AcDbEntity
  8
FORMAT
 62
     7
100
AcDbTrace
 10
1403.29321660604
 20
2689.281084164156
 30
0.0
 11
1455.29321660604
 21
2680.281084164156
 31
0.0
 12
1455.29321660604
 22
2698.281084164156
 32
0.0
 13
1455.29321660604
 23
2698.281084164156
 33
0.0
  0
SOLID
  5
103
330
FF
100
AcDbEntity
  8
FORMAT
 62
     7
100
AcDbTrace
 10
2572.293216606041
 20
2689.281084164156
 30
0.0
 11
2520.293216606041
 21
2698.281084164156
 31
0.0
 12
2520.293216606041
 22
2680.281084164156
 32
0.0
 13
2520.293216606041
 23
2680.281084164156
 33
0.0
  0
LINE
  5
104
330
FF
100
AcDbEntity
  8
FORMAT
 62
     7
100
AcDbLine
 10
1403.29321660604
 20
3006.458382546963
 30
0.0
 11
1403.29321660604
 21
2669.281084164155
 31
0.0
  0
LINE
  5
105
330
FF
100
AcDbEntity
  8
FORMAT
 62
     7
100
AcDbLine
 10
2572.293216606041
 20
3006.458382546963
 30
0.0
 11
2572.293216606041
 21
2669.281084164155
 31
0.0
  0
LINE
  5
106
330
FF
100
AcDbEntity
  8
FORMAT
 62
     7
100
AcDbLine
 10
1403.29321660604
 20
2689.281084164156
 30
0.0
 11
2572.293216606041
 21
2689.281084164156
 31
0.0
  0
MTEXT
  5
107
330
FF
100
AcDbEntity
  8
FORMAT
 62
     7
100
AcDbMText
 10
1937.903241403249
 20
2750.672936434948
 30
0.0
 40
47.62499999999999
 41
0.0
 46
0.0
 71
     1
 72
     1
  1
1169
  7
SLDTEXTSTYLE1
 73
     1
 44
1.0
  0
ENDBLK
  5
101
330
FF
100
AcDbEntity
  8
0
100
AcDbBlockEnd
  0
BLOCK
  5
10B
330
10A
100
AcDbEntity
  8
0
100
AcDbBlockBegin
  2
_D_1
 70
     0
 10
0.0
 20
0.0
 30
0.0
  3
_D_1
  1

  0
SOLID
  5
10D
330
10A
100
AcDbEntity
  8
FORMAT
100
AcDbTrace
 10
855.4591284041949
 20
3026.458382546963
 30
0.0
 11
864.4591284041949
 21
3078.458382546963
 31
0.0
 12
846.4591284041949
 22
3078.458382546963
 32
0.0
 13
846.4591284041949
 23
3078.458382546963
 33
0.0
  0
SOLID
  5
10E
330
10A
100
AcDbEntity
  8
FORMAT
100
AcDbTrace
 10
855.4591284041949
 20
3641.209000273053
 30
0.0
 11
846.4591284041949
 21
3589.209000273053
 31
0.0
 12
864.4591284041949
 22
3589.209000273053
 32
0.0
 13
864.4591284041949
 23
3589.209000273053
 33
0.0
  0
LINE
  5
10F
330
10A
100
AcDbEntity
  8
FORMAT
100
AcDbLine
 10
1383.29321660604
 20
3026.458382546963
 30
0.0
 11
835.4591284041948
 21
3026.458382546963
 31
0.0
  0
LINE
  5
110
330
10A
100
AcDbEntity
  8
FORMAT
100
AcDbLine
 10
1139.179342818721
 20
3641.209000273053
 30
0.0
 11
835.4591284041948
 21
3641.209000273053
 31
0.0
  0
LINE
  5
111
330
10A
100
AcDbEntity
  8
FORMAT
100
AcDbLine
 10
855.4591284041949
 20
3026.458382546963
 30
0.0
 11
855.4591284041949
 21
3641.209000273053
 31
0.0
  0
MTEXT
  5
112
330
10A
100
AcDbEntity
  8
FORMAT
100
AcDbMText
 10
794.0672761334017
 20
3294.442949160979
 30
0.0
 40
47.62499999999999
 41
0.0
 46
0.0
 71
     1
 72
     1
  1
615
  7
SLDTEXTSTYLE1
 11
0.0000000000000001
 21
1.0
 31
0.0
 73
     1
 44
1.0
  0
ENDBLK
  5
10C
330
10A
100
AcDbEntity
  8
0
100
AcDbBlockEnd
  0
BLOCK
  5
137
330
136
100
AcDbEntity
  8
0
100
AcDbBlockBegin
  2
_D_2
 70
     0
 10
0.0
 20
0.0
 30
0.0
  3
_D_2
  1

  0
SOLID
  5
139
330
136
100
AcDbEntity
  8
FORMAT
 62
     7
100
AcDbTrace
 10
3522.223882055426
 20
2782.269085787838
 30
0.0
 11
3574.223882055426
 21
2773.269085787838
 31
0.0
 12
3574.223882055426
 22
2791.269085787837
 32
0.0
 13
3574.223882055426
 23
2791.269085787837
 33
0.0
  0
SOLID
  5
13A
330
136
100
AcDbEntity
  8
FORMAT
 62
     7
100
AcDbTrace
 10
4132.22388205478
 20
2782.269085787838
 30
0.0
 11
4080.22388205478
 21
2791.269085787837
 31
0.0
 12
4080.22388205478
 22
2773.269085787838
 32
0.0
 13
4080.22388205478
 23
2773.269085787838
 33
0.0
  0
LINE
  5
13B
330
136
100
AcDbEntity
  8
FORMAT
 62
     7
100
AcDbLine
 10
3522.223882055426
 20
3006.458382542098
 30
0.0
 11
3522.223882055426
 21
2762.269085787838
 31
0.0
  0
LINE
  5
13C
330
136
100
AcDbEntity
  8
FORMAT
 62
     7
100
AcDbLine
 10
4132.22388205478
 20
3006.458382542098
 30
0.0
 11
4132.22388205478
 21
2762.269085787838
 31
0.0
  0
LINE
  5
13D
330
136
100
AcDbEntity
  8
FORMAT
 62
     7
100
AcDbLine
 10
3522.223882055426
 20
2782.269085787838
 30
0.0
 11
4132.22388205478
 21
2782.269085787838
 31
0.0
  0
MTEXT
  5
13E
330
136
100
AcDbEntity
  8
FORMAT
 62
     7
100
AcDbMText
 10
3777.400321299551
 20
2843.66093805863
 30
0.0
 40
47.62499999999999
 41
0.0
 46
0.0
 71
     1
 72
     1
  1
610
  7
SLDTEXTSTYLE1
 73
     1
 44
1.0
  0
ENDBLK
  5
138
330
136
100
AcDbEntity
  8
0
100
AcDbBlockEnd
  0
BLOCK
  5
178
330
177
100
AcDbEntity
  8
0
100
AcDbBlockBegin
  2
_D_3
 70
     0
 10
0.0
 20
0.0
 30
0.0
  3
_D_3
  1

  0
SOLID
  5
17A
330
177
100
AcDbEntity
  8
FORMAT
 62
     7
100
AcDbTrace
 10
820.0606518875295
 20
4937.414506191801
 30
0.0
 11
811.060652393119
 21
4885.414506104296
 31
0.0
 12
829.060652393119
 22
4885.414506279308
 32
0.0
 13
829.060652393119
 23
4885.414506279308
 33
0.0
  0
SOLID
  5
17B
330
177
100
AcDbEntity
  8
FORMAT
 62
     7
100
AcDbTrace
 10
820.0606596078317
 20
4143.379657235136
 30
0.0
 11
829.0606591022422
 21
4195.379657322642
 31
0.0
 12
811.0606591022422
 22
4195.379657147629
 32
0.0
 13
811.0606591022422
 23
4195.379657147629
 33
0.0
  0
LINE
  5
17C
330
177
100
AcDbEntity
  8
FORMAT
 62
     7
100
AcDbLine
 10
1967.793216578202
 20
4937.414517351062
 30
0.0
 11
800.0606518875295
 21
4937.414505997343
 31
0.0
  0
LINE
  5
17D
330
177
100
AcDbEntity
  8
FORMAT
 62
     7
100
AcDbLine
 10
1967.793224298504
 20
4143.379668394397
 30
0.0
 11
800.0606596078318
 21
4143.379657040678
 31
0.0
  0
LINE
  5
17E
330
177
100
AcDbEntity
  8
FORMAT
 62
     7
100
AcDbLine
 10
820.0606518875295
 20
4937.414506191801
 30
0.0
 11
820.0606596078317
 21
4143.379657235136
 31
0.0
  0
MTEXT
  5
17F
330
177
100
AcDbEntity
  8
FORMAT
 62
     7
100
AcDbMText
 10
758.6688039516887
 20
4491.563717793854
 30
0.0
 40
47.62499999999999
 41
0.0
 46
0.0
 71
     1
 72
     1
  1
794
  7
SLDTEXTSTYLE1
 11
-0.0000000097228829
 21
1.0
 31
0.0
 73
     1
 44
1.0
  0
ENDBLK
  5
179
330
177
100
AcDbEntity
  8
0
100
AcDbBlockEnd
  0
BLOCK
  5
182
330
181
100
AcDbEntity
  8
0
100
AcDbBlockBegin
  2
_D_4
 70
     0
 10
0.0
 20
0.0
 30
0.0
  3
_D_4
  1

  0
SOLID
  5
184
330
181
100
AcDbEntity
  8
FORMAT
 62
     7
100
AcDbTrace
 10
1138.007301717807
 20
5272.688051091651
 30
0.0
 11
1190.007301717789
 21
5263.688051091548
 31
0.0
 12
1190.007301717824
 22
5281.688051091549
 32
0.0
 13
1190.007301717824
 23
5281.688051091549
 33
0.0
  0
SOLID
  5
185
330
181
100
AcDbEntity
  8
FORMAT
 62
     7
100
AcDbTrace
 10
2837.579131497164
 20
5272.688051088321
 30
0.0
 11
2785.579131497181
 21
5281.688051088423
 31
0.0
 12
2785.579131497146
 22
5263.688051088423
 32
0.0
 13
2785.579131497146
 23
5263.688051088423
 33
0.0
  0
LINE
  5
186
330
181
100
AcDbEntity
  8
FORMAT
 62
     7
100
AcDbLine
 10
1138.007301716411
 20
4560.397093069595
 30
0.0
 11
1138.007301717846
 21
5292.688051091651
 31
0.0
  0
LINE
  5
187
330
181
100
AcDbEntity
  8
FORMAT
 62
     7
100
AcDbLine
 10
2837.579131495769
 20
4560.397093066265
 30
0.0
 11
2837.579131497203
 21
5292.688051088322
 31
0.0
  0
LINE
  5
188
330
181
100
AcDbEntity
  8
FORMAT
 62
     7
100
AcDbLine
 10
1138.007301717807
 20
5272.688051091651
 30
0.0
 11
2837.579131497164
 21
5272.688051088321
 31
0.0
  0
MTEXT
  5
189
330
181
100
AcDbEntity
  8
FORMAT
 62
     7
100
AcDbMText
 10
1892.212207631006
 20
5334.079903360965
 30
0.0
 40
47.62499999999999
 41
0.0
 46
0.0
 71
     1
 72
     1
  1
1700
  7
SLDTEXTSTYLE1
 11
1.0
 21
-0.0000000000019454
 31
0.0
 73
     1
 44
1.0
  0
ENDBLK
  5
183
330
181
100
AcDbEntity
  8
0
100
AcDbBlockEnd
  0
BLOCK
  5
18C
330
18B
100
AcDbEntity
  8
0
100
AcDbBlockBegin
  2
_D_5
 70
     0
 10
0.0
 20
0.0
 30
0.0
  3
_D_5
  1

  0
SOLID
  5
18E
330
18B
100
AcDbEntity
  8
FORMAT
100
AcDbTrace
 10
1138.007301718009
 20
5137.310991091419
 30
0.0
 11
1190.007301717985
 21
5128.310991091276
 31
0.0
 12
1190.007301718034
 22
5146.310991091276
 32
0.0
 13
1190.007301718034
 23
5146.310991091276
 33
0.0
  0
SOLID
  5
18F
330
18B
100
AcDbEntity
  8
FORMAT
100
AcDbTrace
 10
1987.793216607688
 20
5137.310991089088
 30
0.0
 11
1935.793216607713
 21
5146.31099108923
 31
0.0
 12
1935.793216607663
 22
5128.310991089231
 32
0.0
 13
1935.793216607663
 23
5128.310991089231
 33
0.0
  0
LINE
  5
190
330
18B
100
AcDbEntity
  8
FORMAT
100
AcDbLine
 10
1138.007301716427
 20
4560.397093069595
 30
0.0
 11
1138.007301718064
 21
5157.310991091419
 31
0.0
  0
LINE
  5
191
330
18B
100
AcDbEntity
  8
FORMAT
100
AcDbLine
 10
1987.793216606106
 20
4560.397093067264
 30
0.0
 11
1987.793216607743
 21
5157.310991089087
 31
0.0
  0
LINE
  5
192
330
18B
100
AcDbEntity
  8
FORMAT
100
AcDbLine
 10
1138.007301718009
 20
5137.310991091419
 30
0.0
 11
1987.793216607688
 21
5137.310991089088
 31
0.0
  0
MTEXT
  5
193
330
18B
100
AcDbEntity
  8
FORMAT
100
AcDbMText
 10
1529.073583190547
 20
5198.702843361139
 30
0.0
 40
47.62499999999999
 41
0.0
 46
0.0
 71
     1
 72
     1
  1
850
  7
SLDTEXTSTYLE1
 11
1.0
 21
-0.0000000000027287
 31
0.0
 73
     1
 44
1.0
  0
ENDBLK
  5
18D
330
18B
100
AcDbEntity
  8
0
100
AcDbBlockEnd
  0
BLOCK
  5
196
330
195
100
AcDbEntity
  8
0
100
AcDbBlockBegin
  2
_D_6
 70
     0
 10
0.0
 20
0.0
 30
0.0
  3
_D_6
  1

  0
SOLID
  5
198
330
195
100
AcDbEntity
  8
FORMAT
100
AcDbTrace
 10
960.3120042938073
 20
4937.414517545519
 30
0.0
 11
951.3120042938073
 21
4885.41451754552
 31
0.0
 12
969.3120042938073
 22
4885.41451754552
 32
0.0
 13
969.3120042938073
 23
4885.41451754552
 33
0.0
  0
SOLID
  5
199
330
195
100
AcDbEntity
  8
FORMAT
100
AcDbTrace
 10
960.3120042938073
 20
4540.397093067265
 30
0.0
 11
969.3120042938073
 21
4592.397093067265
 31
0.0
 12
951.3120042938073
 22
4592.397093067265
 32
0.0
 13
951.3120042938073
 23
4592.397093067265
 33
0.0
  0
LINE
  5
19A
330
195
100
AcDbEntity
  8
FORMAT
100
AcDbLine
 10
1967.793216578202
 20
4937.414517545519
 30
0.0
 11
940.3120042938072
 21
4937.414517545519
 31
0.0
  0
LINE
  5
19B
330
195
100
AcDbEntity
  8
FORMAT
100
AcDbLine
 10
967.183495156059
 20
4540.397093067265
 30
0.0
 11
940.3120042938072
 21
4540.397093067265
 31
0.0
  0
LINE
  5
19C
330
195
100
AcDbEntity
  8
FORMAT
100
AcDbLine
 10
960.3120042938073
 20
4937.414517545519
 30
0.0
 11
960.3120042938073
 21
4540.397093067265
 31
0.0
  0
MTEXT
  5
19D
330
195
100
AcDbEntity
  8
FORMAT
100
AcDbMText
 10
898.9201520230142
 20
4659.118666917776
 30
0.0
 40
47.62499999999999
 41
0.0
 46
0.0
 71
     1
 72
     1
  1
397
  7
SLDTEXTSTYLE1
 11
-0.000000000000007
 21
1.0
 31
0.0
 73
     1
 44
1.0
  0
ENDBLK
  5
197
330
195
100
AcDbEntity
  8
0
100
AcDbBlockEnd
  0
BLOCK
  5
211
330
210
100
AcDbEntity
  8
0
100
AcDbBlockBegin
  2
_D_7
 70
     0
 10
0.0
 20
0.0
 30
0.0
  3
_D_7
  1

  0
ARC
  5
213
330
210
100
AcDbEntity
  8
FORMAT
100
AcDbCircle
 10
2549.238241785092
 20
1327.941418976267
 30
0.0
 40
927.8746659199914
100
AcDbArc
 50
62.3156355100039
 51
74.02221952295557
  0
ARC
  5
214
330
210
100
AcDbEntity
  8
FORMAT
100
AcDbCircle
 10
2549.238241785092
 20
1327.941418976267
 30
0.0
 40
927.8746659199912
100
AcDbArc
 50
80.10458853061583
 51
90.0
  0
SOLID
  5
215
330
210
100
AcDbEntity
  8
FORMAT
100
AcDbTrace
 10
2980.329194182939
 20
2149.593405170455
 30
0.0
 11
2937.580708686309
 21
2180.537984465454
 31
0.0
 12
2929.667289810307
 22
2164.370801603466
 32
0.0
 13
2929.667289810307
 23
2164.370801603466
 33
0.0
  0
SOLID
  5
216
330
210
100
AcDbEntity
  8
FORMAT
100
AcDbTrace
 10
2549.238241785092
 20
2255.816084896259
 30
0.0
 11
2600.965978318163
 21
2245.36422988553
 31
0.0
 12
2601.469763945338
 22
2263.357178505527
 32
0.0
 13
2601.469763945338
 23
2263.357178505527
 33
0.0
  0
LINE
  5
217
330
210
100
AcDbEntity
  8
FORMAT
100
AcDbLine
 10
2777.957035270537
 20
1763.87552963656
 30
0.0
 11
2989.621202429988
 21
2167.303814051584
 31
0.0
  0
LINE
  5
218
330
210
100
AcDbEntity
  8
FORMAT
100
AcDbLine
 10
2549.238241785092
 20
1750.990987094336
 30
0.0
 11
2549.238241785092
 21
2275.816084896259
 31
0.0
  0
MTEXT
  5
219
330
210
100
AcDbEntity
  8
FORMAT
100
AcDbMText
 10
2708.693695453491
 20
2258.225880716612
 30
0.0
 40
47.62499999999999
 41
0.0
 46
0.0
 71
     1
 72
     1
  1
28°
  7
SLDTEXTSTYLE1
 73
     1
 44
1.0
  0
ENDBLK
  5
212
330
210
100
AcDbEntity
  8
0
100
AcDbBlockEnd
  0
BLOCK
  5
21D
330
21C
100
AcDbEntity
  8
0
100
AcDbBlockBegin
  2
_D_8
 70
     0
 10
0.0
 20
0.0
 30
0.0
  3
_D_8
  1

  0
SOLID
  5
21F
330
21C
100
AcDbEntity
  8
FORMAT
 62
     7
100
AcDbTrace
 10
2756.671471720124
 20
1182.968351744749
 30
0.0
 11
2747.671471720124
 21
1130.968351744749
 31
0.0
 12
2765.671471720124
 22
1130.968351744749
 32
0.0
 13
2765.671471720124
 23
1130.968351744749
 33
0.0
  0
SOLID
  5
220
330
21C
100
AcDbEntity
  8
FORMAT
 62
     7
100
AcDbTrace
 10
2756.671471720124
 20
1296.968351744749
 30
0.0
 11
2765.671471720124
 21
1348.968351744749
 31
0.0
 12
2747.671471720124
 22
1348.968351744749
 32
0.0
 13
2747.671471720124
 23
1348.968351744749
 33
0.0
  0
LINE
  5
221
330
21C
100
AcDbEntity
  8
FORMAT
 62
     7
100
AcDbLine
 10
2007.793216606041
 20
1182.968351744749
 30
0.0
 11
2776.671471720124
 21
1182.968351744749
 31
0.0
  0
LINE
  5
222
330
21C
100
AcDbEntity
  8
FORMAT
 62
     7
100
AcDbLine
 10
2042.793216606041
 20
1296.968351744749
 30
0.0
 11
2776.671471720124
 21
1296.968351744749
 31
0.0
  0
LINE
  5
223
330
21C
100
AcDbEntity
  8
FORMAT
 62
     7
100
AcDbLine
 10
2756.671471720124
 20
1182.968351744749
 30
0.0
 11
2756.671471720124
 21
864.7053117497144
 31
0.0
  0
LINE
  5
224
330
21C
100
AcDbEntity
  8
FORMAT
 62
     7
100
AcDbLine
 10
2756.671471720124
 20
1182.968351744749
 30
0.0
 11
2756.671471720124
 21
1296.968351744749
 31
0.0
  0
LINE
  5
225
330
21C
100
AcDbEntity
  8
FORMAT
 62
     7
100
AcDbLine
 10
2756.671471720124
 20
1296.968351744749
 30
0.0
 11
2756.671471720124
 21
1396.968351744749
 31
0.0
  0
MTEXT
  5
226
330
21C
100
AcDbEntity
  8
FORMAT
 62
     7
100
AcDbMText
 10
2695.279619449332
 20
864.7053117497144
 30
0.0
 40
47.62499999999999
 41
0.0
 46
0.0
 71
     1
 72
     1
  1
114
  7
SLDTEXTSTYLE1
 11
0.0000000000000001
 21
1.0
 31
0.0
 73
     1
 44
1.0
  0
ENDBLK
  5
21E
330
21C
100
AcDbEntity
  8
0
100
AcDbBlockEnd
  0
BLOCK
  5
229
330
228
100
AcDbEntity
  8
0
100
AcDbBlockBegin
  2
_D_9
 70
     0
 10
0.0
 20
0.0
 30
0.0
  3
_D_9
  1

  0
SOLID
  5
22B
330
228
100
AcDbEntity
  8
FORMAT
 62
     7
100
AcDbTrace
 10
1455.077416317442
 20
1919.215924814452
 30
0.0
 11
1507.077416317442
 21
1910.215924814452
 31
0.0
 12
1507.077416317442
 22
1928.215924814452
 32
0.0
 13
1507.077416317442
 23
1928.215924814452
 33
0.0
  0
SOLID
  5
22C
330
228
100
AcDbEntity
  8
FORMAT
 62
     7
100
AcDbTrace
 10
2520.509016894639
 20
1919.215924814452
 30
0.0
 11
2468.509016894639
 21
1928.215924814452
 31
0.0
 12
2468.509016894639
 22
1910.215924814452
 32
0.0
 13
2468.509016894639
 23
1910.215924814452
 33
0.0
  0
LINE
  5
22D
330
228
100
AcDbEntity
  8
FORMAT
 62
     7
100
AcDbLine
 10
1455.077416317442
 20
1352.418005909773
 30
0.0
 11
1455.077416317442
 21
1939.215924814453
 31
0.0
  0
LINE
  5
22E
330
228
100
AcDbEntity
  8
FORMAT
 62
     7
100
AcDbLine
 10
2520.509016894639
 20
1352.418005909773
 30
0.0
 11
2520.509016894639
 21
1939.215924814453
 31
0.0
  0
LINE
  5
22F
330
228
100
AcDbEntity
  8
FORMAT
 62
     7
100
AcDbLine
 10
1455.077416317442
 20
1919.215924814452
 30
0.0
 11
2520.509016894639
 21
1919.215924814452
 31
0.0
  0
MTEXT
  5
230
330
228
100
AcDbEntity
  8
FORMAT
 62
     7
100
AcDbMText
 10
1929.206547722428
 20
1980.607777085245
 30
0.0
 40
47.62499999999999
 41
0.0
 46
0.0
 71
     1
 72
     1
  1
1065
  7
SLDTEXTSTYLE1
 73
     1
 44
1.0
  0
ENDBLK
  5
22A
330
228
100
AcDbEntity
  8
0
100
AcDbBlockEnd
  0
BLOCK
  5
233
330
232
100
AcDbEntity
  8
0
100
AcDbBlockBegin
  2
_D_10
 70
     0
 10
0.0
 20
0.0
 30
0.0
  3
_D_10
  1

  0
SOLID
  5
235
330
232
100
AcDbEntity
  8
FORMAT
 62
     7
100
AcDbTrace
 10
1374.462024387819
 20
2047.022304246858
 30
0.0
 11
1426.462024387819
 21
2038.022304246858
 31
0.0
 12
1426.462024387819
 22
2056.022304246858
 32
0.0
 13
1426.462024387819
 23
2056.022304246858
 33
0.0
  0
SOLID
  5
236
330
232
100
AcDbEntity
  8
FORMAT
 62
     7
100
AcDbTrace
 10
2601.124408824262
 20
2047.022304246858
 30
0.0
 11
2549.124408824262
 21
2056.022304246857
 31
0.0
 12
2549.124408824262
 22
2038.022304246858
 32
0.0
 13
2549.124408824262
 23
2038.022304246858
 33
0.0
  0
LINE
  5
237
330
232
100
AcDbEntity
  8
FORMAT
 62
     7
100
AcDbLine
 10
1374.462024387819
 20
1411.589274852032
 30
0.0
 11
1374.462024387819
 21
2067.022304246858
 31
0.0
  0
LINE
  5
238
330
232
100
AcDbEntity
  8
FORMAT
 62
     7
100
AcDbLine
 10
2601.124408824262
 20
1411.589274852032
 30
0.0
 11
2601.124408824262
 21
2067.022304246858
 31
0.0
  0
LINE
  5
239
330
232
100
AcDbEntity
  8
FORMAT
 62
     7
100
AcDbLine
 10
1374.462024387819
 20
2047.022304246858
 30
0.0
 11
2601.124408824262
 21
2047.022304246858
 31
0.0
  0
MTEXT
  5
23A
330
232
100
AcDbEntity
  8
FORMAT
 62
     7
100
AcDbMText
 10
1929.219144111567
 20
2108.414156517651
 30
0.0
 40
47.62499999999999
 41
0.0
 46
0.0
 71
     1
 72
     1
  1
1227
  7
SLDTEXTSTYLE1
 73
     1
 44
1.0
  0
ENDBLK
  5
234
330
232
100
AcDbEntity
  8
0
100
AcDbBlockEnd
  0
BLOCK
  5
2A6
330
2A5
100
AcDbEntity
  8
0
100
AcDbBlockBegin
  2
_D_11
 70
     0
 10
0.0
 20
0.0
 30
0.0
  3
_D_11
  1

  0
SOLID
  5
2A8
330
2A5
100
AcDbEntity
  8
FORMAT
100
AcDbTrace
 10
3821.121873104001
 20
1306.96835174475
 30
0.0
 11
3830.121873104002
 21
1358.968351744749
 31
0.0
 12
3812.121873104001
 22
1358.968351744749
 32
0.0
 13
3812.121873104001
 23
1358.968351744749
 33
0.0
  0
SOLID
  5
2A9
330
2A5
100
AcDbEntity
  8
FORMAT
100
AcDbTrace
 10
3821.121873104001
 20
1706.685345398069
 30
0.0
 11
3812.121873104001
 21
1654.685345398069
 31
0.0
 12
3830.121873104002
 22
1654.685345398069
 32
0.0
 13
3830.121873104002
 23
1654.685345398069
 33
0.0
  0
LINE
  5
2AA
330
2A5
100
AcDbEntity
  8
FORMAT
100
AcDbLine
 10
4164.897041501631
 20
1706.685345398069
 30
0.0
 11
3801.121873104001
 21
1706.685345398069
 31
0.0
  0
LINE
  5
2AB
330
2A5
100
AcDbEntity
  8
FORMAT
100
AcDbLine
 10
3821.121873104001
 20
1306.96835174475
 30
0.0
 11
3821.121873104001
 21
1706.685345398069
 31
0.0
  0
MTEXT
  5
2AC
330
2A5
100
AcDbEntity
  8
FORMAT
100
AcDbMText
 10
3759.730020833208
 20
1486.989135550336
 30
0.0
 40
47.62499999999999
 41
0.0
 46
0.0
 71
     1
 72
     1
  1
400
  7
SLDTEXTSTYLE1
 11
0.0000000000000001
 21
1.0
 31
0.0
 73
     1
 44
1.0
  0
ENDBLK
  5
2A7
330
2A5
100
AcDbEntity
  8
0
100
AcDbBlockEnd
  0
BLOCK
  5
2AF
330
2AE
100
AcDbEntity
  8
0
100
AcDbBlockBegin
  2
_D_12
 70
     0
 10
0.0
 20
0.0
 30
0.0
  3
_D_12
  1

  0
SOLID
  5
2B1
330
2AE
100
AcDbEntity
  8
FORMAT
100
AcDbTrace
 10
3821.121872607664
 20
912.9441875148335
 30
0.0
 11
3873.121872607664
 21
903.9441875148336
 31
0.0
 12
3873.121872607664
 22
921.9441875148335
 32
0.0
 13
3873.121872607664
 23
921.9441875148335
 33
0.0
  0
SOLID
  5
2B2
330
2AE
100
AcDbEntity
  8
FORMAT
100
AcDbTrace
 10
4231.401715235164
 20
912.9441875148335
 30
0.0
 11
4179.401715235164
 21
921.9441875148335
 31
0.0
 12
4179.401715235164
 22
903.9441875148336
 32
0.0
 13
4179.401715235164
 23
903.9441875148336
 33
0.0
  0
LINE
  5
2B3
330
2AE
100
AcDbEntity
  8
FORMAT
100
AcDbLine
 10
3821.121872607664
 20
1039.738851115566
 30
0.0
 11
3821.121872607664
 21
892.9441875148336
 31
0.0
  0
LINE
  5
2B4
330
2AE
100
AcDbEntity
  8
FORMAT
100
AcDbLine
 10
4231.401715235164
 20
1081.275331702534
 30
0.0
 11
4231.401715235164
 21
892.9441875148336
 31
0.0
  0
LINE
  5
2B5
330
2AE
100
AcDbEntity
  8
FORMAT
100
AcDbLine
 10
3821.121872607664
 20
912.9441875148335
 30
0.0
 11
4231.401715235164
 21
912.9441875148335
 31
0.0
  0
MTEXT
  5
2B6
330
2AE
100
AcDbEntity
  8
FORMAT
100
AcDbMText
 10
4003.692577925753
 20
974.3360397856266
 30
0.0
 40
47.62499999999999
 41
0.0
 46
0.0
 71
     1
 72
     1
  1
410
  7
SLDTEXTSTYLE1
 73
     1
 44
1.0
  0
ENDBLK
  5
2B0
330
2AE
100
AcDbEntity
  8
0
100
AcDbBlockEnd
  0
BLOCK
  5
2B9
330
2B8
100
AcDbEntity
  8
0
100
AcDbBlockBegin
  2
_D_13
 70
     0
 10
0.0
 20
0.0
 30
0.0
  3
_D_13
  1

  0
SOLID
  5
2BB
330
2B8
100
AcDbEntity
  8
FORMAT
100
AcDbTrace
 10
3254.163744238749
 20
1306.96835174475
 30
0.0
 11
3263.163744238749
 21
1358.968351744749
 31
0.0
 12
3245.163744238749
 22
1358.968351744749
 32
0.0
 13
3245.163744238749
 23
1358.968351744749
 33
0.0
  0
SOLID
  5
2BC
330
2B8
100
AcDbEntity
  8
FORMAT
100
AcDbTrace
 10
3254.163744238749
 20
1797.74421749679
 30
0.0
 11
3245.163744238749
 21
1745.744217496789
 31
0.0
 12
3263.163744238749
 22
1745.744217496789
 32
0.0
 13
3263.163744238749
 23
1745.744217496789
 33
0.0
  0
LINE
  5
2BD
330
2B8
100
AcDbEntity
  8
FORMAT
100
AcDbLine
 10
3775.621872607664
 20
1306.96835174475
 30
0.0
 11
3234.163744238749
 21
1306.96835174475
 31
0.0
  0
LINE
  5
2BE
330
2B8
100
AcDbEntity
  8
FORMAT
100
AcDbLine
 10
3801.121872273927
 20
1797.74421749679
 30
0.0
 11
3234.163744238749
 21
1797.74421749679
 31
0.0
  0
LINE
  5
2BF
330
2B8
100
AcDbEntity
  8
FORMAT
100
AcDbLine
 10
3254.163744238749
 20
1306.96835174475
 30
0.0
 11
3254.163744238749
 21
1797.74421749679
 31
0.0
  0
MTEXT
  5
2C0
330
2B8
100
AcDbEntity
  8
FORMAT
100
AcDbMText
 10
3192.771891967956
 20
1462.463577754208
 30
0.0
 40
47.62499999999999
 41
0.0
 46
0.0
 71
     1
 72
     1
  1
491
  7
SLDTEXTSTYLE1
 11
0.0000000000000001
 21
1.0
 31
0.0
 73
     1
 44
1.0
  0
ENDBLK
  5
2BA
330
2B8
100
AcDbEntity
  8
0
100
AcDbBlockEnd
  0
ENDSEC
  0
SECTION
  2
ENTITIES
  0
SPLINE
  5
DE
330
1F
100
AcDbEntity
  8
bath
  6
Continuous
370
    15
100
AcDbSpline
210
0.0
220
0.0
230
1.0
 70
     8
 71
     3
 72
    74
 73
    70
 74
     0
 42
0.000000001
 43
0.0000000001
 40
0.0
 40
0.0
 40
0.0
 40
0.0
 40
0.0045969016752723
 40
0.0125277895789633
 40
0.0222059287919741
 40
0.0308033668549333
 40
0.0399498067179453
 40
0.0489281544808271
 40
0.0581840127732142
 40
0.0674448229997771
 40
0.0766802773415968
 40
0.0858717156776047
 40
0.0950031166722262
 40
0.1040606081015993
 40
0.113032340164359
 40
0.1219108716375913
 40
0.1307506465910303
 40
0.1396722444008527
 40
0.1487282938989859
 40
0.1579094744668327
 40
0.1672043370040999
 40
0.1765986352421931
 40
0.1860752985609004
 40
0.1956144675701746
 40
0.2051956759772936
 40
0.2148546382878838
 40
0.2248565491527024
 40
0.2350499565315513
 40
0.2454503631160664
 40
0.2560710456994788
 40
0.266924978788961
 40
0.278024755422411
 40
0.2893815492980641
 40
0.3010028699175739
 40
0.3130812733329326
 40
0.3253886904052617
 40
0.3379514491719349
 40
0.3507944290841412
 40
0.3639446780316129
 40
0.377431901219134
 40
0.3912891673096828
 40
0.4055538618351226
 40
0.4202690031266607
 40
0.4354851033120733
 40
0.4512628758741334
 40
0.4676827682035759
 40
0.4846766653895502
 40
0.5019801413097374
 40
0.5196764238783551
 40
0.5378128553392037
 40
0.5564448486349903
 40
0.5756374572845098
 40
0.5954684607726768
 40
0.6160328135709503
 40
0.637449581521956
 40
0.6595939152775889
 40
0.6821223669344389
 40
0.7052186140648294
 40
0.7289241089877631
 40
0.7532893350543844
 40
0.77837327672286
 40
0.8042505375010735
 40
0.830965309782416
 40
0.858244717679215
 40
0.8861790339316343
 40
0.9148342361375618
 40
0.9442881797081891
 40
0.9746358202024955
 40
1.0
 40
1.0
 40
1.0
 40
1.0
 10
2815.582534927674
 20
3641.226341798442
 30
0.0
 10
2815.574956498995
 20
3641.226054968231
 30
0.0
 10
2815.554303248928
 20
3641.225273279004
 30
0.0
 10
2815.284361679539
 20
3641.218758380529
 30
0.0
 10
2814.75243424533
 20
3641.210239376769
 30
0.0
 10
2813.895504078732
 20
3641.199209255251
 30
0.0
 10
2812.747807372605
 20
3641.186687672545
 30
0.0
 10
2811.269133412599
 20
3641.17185008603
 30
0.0
 10
2809.480686394934
 20
3641.154971624618
 30
0.0
 10
2807.3663240655
 20
3641.135869778901
 30
0.0
 10
2804.949392728804
 20
3641.114727822897
 30
0.0
 10
2802.238781836071
 20
3641.091580892469
 30
0.0
 10
2799.243664404473
 20
3641.066466501595
 30
0.0
 10
2795.973838281503
 20
3641.039423930365
 30
0.0
 10
2792.439889467749
 20
3641.010507625258
 30
0.0
 10
2788.641999350859
 20
3640.979656710581
 30
0.0
 10
2784.566293941221
 20
3640.946855215956
 30
0.0
 10
2780.19149655139
 20
3640.912035267152
 30
0.0
 10
2775.495064006016
 20
3640.875117131912
 30
0.0
 10
2770.473437502048
 20
3640.836189516027
 30
0.0
 10
2765.134776132675
 20
3640.795440120031
 30
0.0
 10
2759.489763194979
 20
3640.753083075287
 30
0.0
 10
2753.551541372616
 20
3640.709357820702
 30
0.0
 10
2747.33661751498
 20
3640.664531516303
 30
0.0
 10
2740.84718605535
 20
3640.618782979024
 30
0.0
 10
2734.033628115576
 20
3640.571918031744
 30
0.0
 10
2726.865080023354
 20
3640.523868741355
 30
0.0
 10
2719.309622991311
 20
3640.474606761335
 30
0.0
 10
2711.39970716467
 20
3640.424530168693
 30
0.0
 10
2703.12776102779
 20
3640.373789844348
 30
0.0
 10
2694.48661939859
 20
3640.322560818182
 30
0.0
 10
2685.469846365587
 20
3640.271050188912
 30
0.0
 10
2676.070677187031
 20
3640.219481115874
 30
0.0
 10
2666.239429016218
 20
3640.167938661308
 30
0.0
 10
2655.982849426616
 20
3640.116600320709
 30
0.0
 10
2645.303342809917
 20
3640.065612072778
 30
0.0
 10
2634.254980427418
 20
3640.01532453706
 30
0.0
 10
2622.818573269321
 20
3639.965734870005
 30
0.0
 10
2610.973492104336
 20
3639.916846370911
 30
0.0
 10
2598.696208893231
 20
3639.868664011061
 30
0.0
 10
2585.959616058821
 20
3639.821194472602
 30
0.0
 10
2572.732069553251
 20
3639.774445056677
 30
0.0
 10
2558.97606044927
 20
3639.728426286668
 30
0.0
 10
2544.646306448749
 20
3639.683139106739
 30
0.0
 10
2529.685260845542
 20
3639.638615951426
 30
0.0
 10
2514.072387050047
 20
3639.594883568057
 30
0.0
 10
2497.885969788282
 20
3639.551797848731
 30
0.0
 10
2481.207579244134
 20
3639.509758076115
 30
0.0
 10
2464.083488454853
 20
3639.468861567693
 30
0.0
 10
2446.457273390836
 20
3639.428988992727
 30
0.0
 10
2428.277893763865
 20
3639.390027870489
 30
0.0
 10
2409.484050419363
 20
3639.351849320963
 30
0.0
 10
2390.001146708197
 20
3639.314299412462
 30
0.0
 10
2369.736516126345
 20
3639.27718497891
 30
0.0
 10
2348.663599865314
 20
3639.240442589379
 30
0.0
 10
2326.897177338177
 20
3639.204450892997
 30
0.0
 10
2304.53393157596
 20
3639.169290772407
 30
0.0
 10
2281.616043710323
 20
3639.13495394479
 30
0.0
 10
2258.055502104299
 20
3639.101210684479
 30
0.0
 10
2233.805273057384
 20
3639.067874202214
 30
0.0
 10
2208.807187689527
 20
3639.034750774815
 30
0.0
 10
2183.005110235621
 20
3639.001497183211
 30
0.0
 10
2156.452481563027
 20
3638.968287249202
 30
0.0
 10
2129.198019730156
 20
3638.936453856265
 30
0.0
 10
2101.283448545041
 20
3638.906887348495
 30
0.0
 10
2072.633781014792
 20
3638.881986906117
 30
0.0
 10
2043.172329800649
 20
3638.858856016047
 30
0.0
 10
2014.802281831675
 20
3638.856482989967
 30
0.0
 10
1996.24276416246
 20
3638.814535196871
 30
0.0
 10
1987.793086147073
 20
3638.795437429814
 30
0.0
  0
SPLINE
  5
DF
330
1F
100
AcDbEntity
  8
bath
  6
Continuous
370
    15
100
AcDbSpline
210
0.0
220
0.0
230
1.0
 70
     8
 71
     3
 72
    72
 73
    68
 74
     0
 42
0.000000001
 43
0.0000000001
 40
0.0
 40
0.0
 40
0.0
 40
0.0
 40
0.0078150120888775
 40
0.0407951603981564
 40
0.0698575440720082
 40
0.1006943833175808
 40
0.1305487641619676
 40
0.1595175665404142
 40
0.1876986440613014
 40
0.2151739865537562
 40
0.2420576183628149
 40
0.2681400509581429
 40
0.2933436889194458
 40
0.3177574340795131
 40
0.3414558566620808
 40
0.3645012611343437
 40
0.3869469192657058
 40
0.4090058715249369
 40
0.4302102940444041
 40
0.450537307361207
 40
0.470121376165483
 40
0.489069067055574
 40
0.5074657304813243
 40
0.52538153796205
 40
0.5428754775936727
 40
0.560000753226529
 40
0.5766925037322645
 40
0.5926489855781977
 40
0.6079666891551598
 40
0.6227286920282419
 40
0.6370014606578565
 40
0.6508397820367485
 40
0.6642900253500928
 40
0.6773923199442443
 40
0.6901820605433561
 40
0.7026909783754719
 40
0.7149476670961299
 40
0.7268996112886424
 40
0.7383734447060867
 40
0.7495657379156424
 40
0.7604940009214687
 40
0.771174537581048
 40
0.7816237454293661
 40
0.7918580955243582
 40
0.8019008094057639
 40
0.811666132332993
 40
0.8213326942875369
 40
0.8309416064208454
 40
0.8404708760180181
 40
0.8499012152473506
 40
0.8592163966753561
 40
0.8684032927546986
 40
0.8774518337357926
 40
0.8863604853183773
 40
0.8952014257377577
 40
0.9040987647870723
 40
0.9130847142539222
 40
0.9221483583641679
 40
0.9312772058719122
 40
0.9404569134393357
 40
0.9496711815059486
 40
0.9589013417026436
 40
0.968118536401122
 40
0.9770829660393703
 40
0.9861290151424958
 40
0.995721072123899
 40
1.0
 40
1.0
 40
1.0
 40
1.0
 10
1987.793461463704
 20
3638.789486174682
 30
0.0
 10
1985.189936428555
 20
3638.800252619466
 30
0.0
 10
1971.599270131228
 20
3638.85645455964
 30
0.0
 10
1948.327070931059
 20
3638.849391094121
 30
0.0
 10
1917.38863999716
 20
3638.871571894807
 30
0.0
 10
1887.498206476664
 20
3638.894292225364
 30
0.0
 10
1857.649671335646
 20
3638.9241727479
 30
0.0
 10
1828.69964608232
 20
3638.956823144875
 30
0.0
 10
1800.559275282195
 20
3638.991414024052
 30
0.0
 10
1773.134147274704
 20
3639.026518354397
 30
0.0
 10
1746.431816442665
 20
3639.061665193786
 30
0.0
 10
1720.513489603409
 20
3639.097173751893
 30
0.0
 10
1695.448280246172
 20
3639.133013164878
 30
0.0
 10
1671.210817964992
 20
3639.169314363952
 30
0.0
 10
1647.729521675361
 20
3639.206235771225
 30
0.0
 10
1624.944703227711
 20
3639.243920967603
 30
0.0
 10
1602.75159190321
 20
3639.282555536149
 30
0.0
 10
1581.218563001328
 20
3639.322172327853
 30
0.0
 10
1560.442084027987
 20
3639.362677470899
 30
0.0
 10
1540.541678526277
 20
3639.403813195418
 30
0.0
 10
1521.4485757009
 20
3639.445656914271
 30
0.0
 10
1503.059261230436
 20
3639.488370348932
 30
0.0
 10
1485.291768094921
 20
3639.532079697509
 30
0.0
 10
1468.079974501968
 20
3639.576907743042
 30
0.0
 10
1451.369003924577
 20
3639.622894140578
 30
0.0
 10
1435.145919801827
 20
3639.670216450326
 30
0.0
 10
1419.515107457726
 20
3639.718956089373
 30
0.0
 10
1404.566724661225
 20
3639.768519854665
 30
0.0
 10
1390.340289753305
 20
3639.818563570505
 30
0.0
 10
1376.760875692466
 20
3639.869114228506
 30
0.0
 10
1363.767438260659
 20
3639.920205276885
 30
0.0
 10
1351.311107666016
 20
3639.971858340071
 30
0.0
 10
1339.35178820215
 20
3640.024090447593
 30
0.0
 10
1327.855973619307
 20
3640.076913944696
 30
0.0
 10
1316.794992741613
 20
3640.130344246941
 30
0.0
 10
1306.144786581455
 20
3640.184378839285
 30
0.0
 10
1295.904268766654
 20
3640.238958868482
 30
0.0
 10
1286.135663228596
 20
3640.293478778045
 30
0.0
 10
1276.850217953261
 20
3640.347433737826
 30
0.0
 10
1268.035048114347
 20
3640.400584525332
 30
0.0
 10
1259.631189087206
 20
3640.453010606199
 30
0.0
 10
1251.628095200506
 20
3640.504545016931
 30
0.0
 10
1244.015795897928
 20
3640.555042705321
 30
0.0
 10
1236.783376450541
 20
3640.604383361561
 30
0.0
 10
1229.942547252886
 20
3640.652325768537
 30
0.0
 10
1223.477176010463
 20
3640.698744595977
 30
0.0
 10
1217.351719972658
 20
3640.743677843359
 30
0.0
 10
1211.526780472874
 20
3640.787249122902
 30
0.0
 10
1206.006900573686
 20
3640.829276534567
 30
0.0
 10
1200.807556889811
 20
3640.86950298849
 30
0.0
 10
1195.941121614686
 20
3640.907700375595
 30
0.0
 10
1191.41724089935
 20
3640.94366722184
 30
0.0
 10
1187.241445770831
 20
3640.977244610895
 30
0.0
 10
1183.408326216973
 20
3641.008359356376
 30
0.0
 10
1179.887551815981
 20
3641.03714686976
 30
0.0
 10
1176.644520127472
 20
3641.063941385937
 30
0.0
 10
1173.666043583002
 20
3641.088882729506
 30
0.0
 10
1170.957424870034
 20
3641.111969755403
 30
0.0
 10
1168.528625971122
 20
3641.13316067389
 30
0.0
 10
1166.389035315657
 20
3641.15242030575
 30
0.0
 10
1164.546998895662
 20
3641.169714299966
 30
0.0
 10
1163.01170069936
 20
3641.185021405183
 30
0.0
 10
1161.796056590955
 20
3641.198169588039
 30
0.0
 10
1160.914935156141
 20
3641.209341872163
 30
0.0
 10
1160.324074584523
 20
3641.218487819275
 30
0.0
 10
1160.029017247503
 20
3641.225557972914
 30
0.0
 10
1160.009390030524
 20
3641.226311314196
 30
0.0
 10
1160.003335417479
 20
3641.226543705267
 30
0.0
  0
SPLINE
  5
E2
330
1F
100
AcDbEntity
  8
bath
  6
Continuous
370
    15
100
AcDbSpline
210
0.0
220
0.0
230
1.0
 70
     8
 71
     3
 72
     8
 73
     4
 74
     0
 42
0.000000001
 43
0.0000000001
 40
0.0
 40
0.0
 40
0.0
 40
0.0
 40
1.0
 40
1.0
 40
1.0
 40
1.0
 10
2837.771955788287
 20
3626.770225293376
 30
0.0
 10
2837.760251872008
 20
3626.751100198442
 30
0.0
 10
2837.748226306969
 20
3626.732171942281
 30
0.0
 10
2837.735885893606
 20
3626.713451228801
 30
0.0
  0
SPLINE
  5
E3
330
1F
100
AcDbEntity
  8
bath
  6
Continuous
370
    15
100
AcDbSpline
210
0.0
220
0.0
230
1.0
 70
     8
 71
     3
 72
     9
 73
     5
 74
     0
 42
0.000000001
 43
0.0000000001
 40
0.0
 40
0.0
 40
0.0
 40
0.0
 40
0.0612922165648271
 40
1.0
 40
1.0
 40
1.0
 40
1.0
 10
2836.696768734103
 20
3629.531455072785
 30
0.0
 10
2836.719413690722
 20
3629.53147432245
 30
0.0
 10
2837.088872618596
 20
3629.531788386223
 30
0.0
 10
2837.090599890914
 20
3629.531308185152
 30
0.0
 10
2837.092221294884
 20
3629.53085741667
 30
0.0
  0
SPLINE
  5
E4
330
1F
100
AcDbEntity
  8
bath
  6
Continuous
370
    15
100
AcDbSpline
210
0.0
220
0.0
230
1.0
 70
     8
 71
     3
 72
    18
 73
    14
 74
     0
 42
0.000000001
 43
0.0000000001
 40
0.0
 40
0.0
 40
0.0
 40
0.0
 40
0.1249999999999681
 40
0.1249999999999681
 40
0.2499999999999361
 40
0.2499999999999361
 40
0.3749999999999042
 40
0.3749999999999042
 40
0.4999999999998723
 40
0.4999999999998723
 40
0.7499999999999362
 40
0.7499999999999362
 40
1.0
 40
1.0
 40
1.0
 40
1.0
 10
2837.092221294884
 20
3629.530857416669
 30
0.0
 10
2837.206506949046
 20
3629.462540493194
 30
0.0
 10
2837.312114220921
 20
3629.384074967081
 30
0.0
 10
2837.50667970922
 20
3629.207674312971
 30
0.0
 10
2837.596471506757
 20
3629.1084919575
 30
0.0
 10
2837.753365801115
 20
3628.896027033253
 30
0.0
 10
2837.820542747805
 20
3628.783252155959
 30
0.0
 10
2837.93250951963
 20
3628.544706550612
 30
0.0
 10
2837.977176210371
 20
3628.418207494389
 30
0.0
 10
2838.071093402308
 20
3628.035249850927
 30
0.0
 10
2838.08248561328
 20
3627.764746323925
 30
0.0
 10
2838.00187317271
 20
3627.247577433613
 30
0.0
 10
2837.909648503087
 20
3626.995225727491
 30
0.0
 10
2837.771955788501
 20
3626.770225293725
 30
0.0
  0
SPLINE
  5
E5
330
1F
100
AcDbEntity
  8
bath
  6
Continuous
370
    15
100
AcDbSpline
210
0.0
220
0.0
230
1.0
 70
     8
 71
     3
 72
    18
 73
    14
 74
     0
 42
0.000000001
 43
0.0000000001
 40
0.0
 40
0.0
 40
0.0
 40
0.0
 40
0.1249999999999681
 40
0.1249999999999681
 40
0.2499999999999361
 40
0.2499999999999361
 40
0.3749999999999042
 40
0.3749999999999042
 40
0.4999999999998723
 40
0.4999999999998723
 40
0.7499999999999362
 40
0.7499999999999362
 40
1.0
 40
1.0
 40
1.0
 40
1.0
 10
1138.494211917197
 20
3629.53085741667
 30
0.0
 10
1138.379926263024
 20
3629.462540493188
 30
0.0
 10
1138.27431899114
 20
3629.384074967066
 30
0.0
 10
1138.079753502825
 20
3629.207674312935
 30
0.0
 10
1137.989961705281
 20
3629.108491957452
 30
0.0
 10
1137.833067410916
 20
3628.896027033177
 30
0.0
 10
1137.765890464227
 20
3628.78325215587
 30
0.0
 10
1137.653923692403
 20
3628.544706550491
 30
0.0
 10
1137.609257001666
 20
3628.418207494255
 30
0.0
 10
1137.51533980975
 20
3628.035249850749
 30
0.0
 10
1137.503947598813
 20
3627.764746323694
 30
0.0
 10
1137.584560039414
 20
3627.247577433489
 30
0.0
 10
1137.67678470906
 20
3626.995225727348
 30
0.0
 10
1137.814477423654
 20
3626.770225293607
 30
0.0
  0
SPLINE
  5
E6
330
1F
100
AcDbEntity
  8
bath
  6
Continuous
370
    15
100
AcDbSpline
210
0.0
220
0.0
230
1.0
 70
     8
 71
     3
 72
     8
 73
     4
 74
     0
 42
0.000000001
 43
0.0000000001
 40
0.0
 40
0.0
 40
0.0
 40
0.0
 40
1.0
 40
1.0
 40
1.0
 40
1.0
 10
1137.814477423867
 20
3626.770225293256
 30
0.0
 10
1137.826198532286
 20
3626.751072105054
 30
0.0
 10
1137.838222658941
 20
3626.732148043333
 30
0.0
 10
1137.850547318477
 20
3626.713451228796
 30
0.0
  0
SPLINE
  5
E7
330
1F
100
AcDbEntity
  8
bath
  6
Continuous
370
    15
100
AcDbSpline
210
0.0
220
0.0
230
1.0
 70
     8
 71
     3
 72
    12
 73
     8
 74
     0
 42
0.000000001
 43
0.0000000001
 40
0.0
 40
0.0
 40
0.0
 40
0.0
 40
0.5000000000000194
 40
0.5000000000000194
 40
0.7500000000000097
 40
0.7500000000000097
 40
1.0
 40
1.0
 40
1.0
 40
1.0
 10
2818.935903833536
 20
3640.384220944151
 30
0.0
 10
2818.549106327973
 20
3640.615438202185
 30
0.0
 10
2818.143916156557
 20
3640.799248393844
 30
0.0
 10
2817.509583463418
 20
3641.006537708112
 30
0.0
 10
2817.293673141157
 20
3641.064122803345
 30
0.0
 10
2816.852582428275
 20
3641.155399407671
 30
0.0
 10
2816.628289129121
 20
3641.188643977561
 30
0.0
 10
2816.407090393357
 20
3641.209000273061
 30
0.0
  0
SPLINE
  5
E8
330
1F
100
AcDbEntity
  8
bath
  6
Continuous
370
    15
100
AcDbSpline
210
0.0
220
0.0
230
1.0
 70
     8
 71
     3
 72
     9
 73
     5
 74
     0
 42
0.000000001
 43
0.0000000001
 40
0.0
 40
0.0
 40
0.0
 40
0.0
 40
0.8691473867603399
 40
1.0
 40
1.0
 40
1.0
 40
1.0
 10
2815.582534927674
 20
3641.226341798442
 30
0.0
 10
2815.810115336754
 20
3641.262254266101
 30
0.0
 10
2816.144146333856
 20
3641.230046833686
 30
0.0
 10
2816.363992398598
 20
3641.212449921475
 30
0.0
 10
2816.407090393354
 20
3641.209000273053
 30
0.0
  0
SPLINE
  5
EA
330
1F
100
AcDbEntity
  8
bath
  6
Continuous
370
    15
100
AcDbSpline
210
0.0
220
0.0
230
1.0
 70
     8
 71
     3
 72
    12
 73
     8
 74
     0
 42
0.000000001
 43
0.0000000001
 40
0.0
 40
0.0
 40
0.0
 40
0.0
 40
0.5000000000000594
 40
0.5000000000000594
 40
0.7500000000000297
 40
0.7500000000000297
 40
1.0
 40
1.0
 40
1.0
 40
1.0
 10
1156.650529378545
 20
3640.384220944151
 30
0.0
 10
1157.037326884045
 20
3640.615438202148
 30
0.0
 10
1157.44251705579
 20
3640.799248393948
 30
0.0
 10
1158.076849748837
 20
3641.00653770816
 30
0.0
 10
1158.292760071067
 20
3641.064122803379
 30
0.0
 10
1158.733850783881
 20
3641.155399407683
 30
0.0
 10
1158.958144082999
 20
3641.188643977556
 30
0.0
 10
1159.179342818728
 20
3641.209000273053
 30
0.0
  0
SPLINE
  5
EB
330
1F
100
AcDbEntity
  8
bath
  6
Continuous
370
    15
100
AcDbSpline
210
0.0
220
0.0
230
1.0
 70
     8
 71
     3
 72
     9
 73
     5
 74
     0
 42
0.000000001
 43
0.0000000001
 40
0.0
 40
0.0
 40
0.0
 40
0.0
 40
0.1289957453182893
 40
1.0
 40
1.0
 40
1.0
 40
1.0
 10
1159.179342818722
 20
3641.209000273053
 30
0.0
 10
1159.222441322506
 20
3641.212455188187
 30
0.0
 10
1159.442289983831
 20
3641.230078966287
 30
0.0
 10
1159.78107284872
 20
3641.262166038102
 30
0.0
 10
1160.003335417479
 20
3641.226543705267
 30
0.0
  0
SPLINE
  5
EC
330
1F
100
AcDbEntity
  8
bath
  6
Continuous
370
    15
100
AcDbSpline
210
0.0
220
0.0
230
1.0
 70
     8
 71
     3
 72
    31
 73
    27
 74
     0
 42
0.000000001
 43
0.0000000001
 40
0.0
 40
0.0
 40
0.0
 40
0.0
 40
0.03125
 40
0.0625
 40
0.09375
 40
0.125
 40
0.15625
 40
0.1666666666666666
 40
0.1875
 40
0.21875
 40
0.25
 40
0.3125
 40
0.375
 40
0.4375
 40
0.4444444444444445
 40
0.5
 40
0.5555555555555556
 40
0.5625
 40
0.625
 40
0.6875
 40
0.75
 40
0.8125
 40
0.8333333333333333
 40
0.875
 40
0.9375
 40
1.0
 40
1.0
 40
1.0
 40
1.0
 10
1403.29321660604
 20
3026.458382546963
 30
0.0
 10
1403.29321660604
 20
3026.458382546963
 30
0.0
 10
1403.660125743497
 20
3026.458382546934
 30
0.0
 10
1405.315048813627
 20
3026.458382546821
 30
0.0
 10
1408.078363199277
 20
3026.458382546658
 30
0.0
 10
1411.953900852022
 20
3026.458382546465
 30
0.0
 10
1415.836250863122
 20
3026.458382546306
 30
0.0
 10
1419.661707075283
 20
3026.458382546173
 30
0.0
 10
1423.860884783257
 20
3026.458382546046
 30
0.0
 10
1430.292172928569
 20
3026.458382545885
 30
0.0
 10
1441.442506577727
 20
3026.458382545659
 30
0.0
 10
1458.208881201594
 20
3026.458382545401
 30
0.0
 10
1482.884718462702
 20
3026.458382545111
 30
0.0
 10
1503.47697517149
 20
3026.458382544911
 30
0.0
 10
1524.695613687332
 20
3026.458382544717
 30
0.0
 10
1546.190168340928
 20
3026.458382544531
 30
0.0
 10
1570.286159286028
 20
3026.458382544344
 30
0.0
 10
1597.358029457751
 20
3026.45838254415
 30
0.0
 10
1627.763056883753
 20
3026.45838254395
 30
0.0
 10
1675.679666896156
 20
3026.45838254366
 30
0.0
 10
1728.336398296609
 20
3026.45838254335
 30
0.0
 10
1773.002238164132
 20
3026.458382543079
 30
0.0
 10
1813.421213815196
 20
3026.458382542824
 30
0.0
 10
1855.444073183187
 20
3026.458382542549
 30
0.0
 10
1915.053876952242
 20
3026.458382542216
 30
0.0
 10
1963.003059004659
 20
3026.458382542098
 30
0.0
 10
1987.793216606041
 20
3026.458382542098
 30
0.0
  0
SPLINE
  5
ED
330
1F
100
AcDbEntity
  8
bath
  6
Continuous
370
    15
100
AcDbSpline
210
0.0
220
0.0
230
1.0
 70
     8
 71
     3
 72
    20
 73
    16
 74
     0
 42
0.000000001
 43
0.0000000001
 40
0.0
 40
0.0
 40
0.0
 40
0.0
 40
0.0772403127051835
 40
0.154480625410367
 40
0.2317209381155504
 40
0.3089612508207339
 40
0.360186937364003
 40
0.4401635701935027
 40
0.5201402030230023
 40
0.6001168358525019
 40
0.6800934686820015
 40
0.7600701015115012
 40
0.8400467343410007
 40
0.9200233671705003
 40
0.981914424066238
 40
0.981914424066238
 40
0.981914424066238
 40
0.981914424066238
 10
1403.29321660604
 20
3026.458382546963
 30
0.0
 10
1402.389353791489
 20
3036.789581791799
 30
0.0
 10
1399.858201627924
 20
3059.878460184309
 30
0.0
 10
1394.015360443566
 20
3099.265501391335
 30
0.0
 10
1386.250572984582
 20
3140.880550126375
 30
0.0
 10
1377.761567111325
 20
3177.559314401199
 30
0.0
 10
1367.907679803728
 20
3212.613895961606
 30
0.0
 10
1355.021819425436
 20
3249.346201888592
 30
0.0
 10
1336.214625097457
 20
3293.404282730087
 30
0.0
 10
1313.093905612217
 20
3340.425637193511
 30
0.0
 10
1285.513125043006
 20
3391.048681661375
 30
0.0
 10
1253.325747463116
 20
3445.911832516191
 30
0.0
 10
1216.38523694584
 20
3505.65350614047
 30
0.0
 10
1177.698911027713
 20
3565.993017111855
 30
0.0
 10
1150.312918302918
 20
3607.807725006537
 30
0.0
 10
1137.850547318477
 20
3626.713451228796
 30
0.0
  0
SPLINE
  5
EE
330
1F
100
AcDbEntity
  8
bath
  6
Continuous
370
    15
100
AcDbSpline
210
0.0
220
0.0
230
1.0
 70
     8
 71
     3
 72
    31
 73
    27
 74
     0
 42
0.000000001
 43
0.0000000001
 40
0.0
 40
0.0
 40
0.0
 40
0.0
 40
0.03125
 40
0.0625
 40
0.09375
 40
0.125
 40
0.15625
 40
0.1666666666666666
 40
0.1875
 40
0.21875
 40
0.25
 40
0.3125
 40
0.375
 40
0.4375
 40
0.4444444444444445
 40
0.5
 40
0.5555555555555556
 40
0.5625
 40
0.625
 40
0.6875
 40
0.75
 40
0.8125
 40
0.8333333333333333
 40
0.875
 40
0.9375
 40
1.0
 40
1.0
 40
1.0
 40
1.0
 10
2572.293216606041
 20
3026.458382546963
 30
0.0
 10
2572.293216606041
 20
3026.458382546963
 30
0.0
 10
2571.926307468584
 20
3026.458382546934
 30
0.0
 10
2570.271384398454
 20
3026.458382546821
 30
0.0
 10
2567.508070012804
 20
3026.458382546658
 30
0.0
 10
2563.632532360059
 20
3026.458382546465
 30
0.0
 10
2559.75018234896
 20
3026.458382546306
 30
0.0
 10
2555.924726136797
 20
3026.458382546173
 30
0.0
 10
2551.725548428824
 20
3026.458382546046
 30
0.0
 10
2545.294260283512
 20
3026.458382545885
 30
0.0
 10
2534.143926634354
 20
3026.458382545659
 30
0.0
 10
2517.377552010487
 20
3026.458382545401
 30
0.0
 10
2492.701714749379
 20
3026.458382545111
 30
0.0
 10
2472.109458040591
 20
3026.458382544911
 30
0.0
 10
2450.89081952475
 20
3026.458382544717
 30
0.0
 10
2429.396264871153
 20
3026.458382544531
 30
0.0
 10
2405.300273926054
 20
3026.458382544344
 30
0.0
 10
2378.22840375433
 20
3026.45838254415
 30
0.0
 10
2347.823376328328
 20
3026.45838254395
 30
0.0
 10
2299.906766315926
 20
3026.45838254366
 30
0.0
 10
2247.250034915472
 20
3026.45838254335
 30
0.0
 10
2202.58419504795
 20
3026.458382543079
 30
0.0
 10
2162.165219396885
 20
3026.458382542824
 30
0.0
 10
2120.142360028895
 20
3026.458382542549
 30
0.0
 10
2060.532556259839
 20
3026.458382542216
 30
0.0
 10
2012.583374207422
 20
3026.458382542098
 30
0.0
 10
1987.79321660604
 20
3026.458382542098
 30
0.0
  0
SPLINE
  5
EF
330
1F
100
AcDbEntity
  8
bath
  6
Continuous
370
    15
100
AcDbSpline
210
0.0
220
0.0
230
1.0
 70
     8
 71
     3
 72
    20
 73
    16
 74
     0
 42
0.000000001
 43
0.0000000001
 40
0.0
 40
0.0
 40
0.0
 40
0.0
 40
0.0772403127051835
 40
0.154480625410367
 40
0.2317209381155504
 40
0.3089612508207339
 40
0.360186937364003
 40
0.4401635701935027
 40
0.5201402030230023
 40
0.6001168358525019
 40
0.6800934686820015
 40
0.7600701015115012
 40
0.8400467343410007
 40
0.9200233671705003
 40
0.9819144240662414
 40
0.9819144240662414
 40
0.9819144240662414
 40
0.9819144240662414
 10
2572.293216606041
 20
3026.458382546963
 30
0.0
 10
2573.197079420592
 20
3036.789581791799
 30
0.0
 10
2575.728231584157
 20
3059.878460184309
 30
0.0
 10
2581.571072768515
 20
3099.265501391335
 30
0.0
 10
2589.335860227499
 20
3140.880550126375
 30
0.0
 10
2597.824866100757
 20
3177.559314401199
 30
0.0
 10
2607.678753408353
 20
3212.613895961606
 30
0.0
 10
2620.564613786645
 20
3249.346201888592
 30
0.0
 10
2639.371808114624
 20
3293.404282730087
 30
0.0
 10
2662.492527599864
 20
3340.425637193511
 30
0.0
 10
2690.073308169076
 20
3391.048681661375
 30
0.0
 10
2722.260685748965
 20
3445.911832516191
 30
0.0
 10
2759.201196266241
 20
3505.65350614047
 30
0.0
 10
2797.887522184369
 20
3565.993017111856
 30
0.0
 10
2825.273514909165
 20
3607.80772500654
 30
0.0
 10
2837.735885893606
 20
3626.713451228801
 30
0.0
  0
LINE
  5
F0
330
1F
100
AcDbEntity
  8
bath
  6
Continuous
370
    15
100
AcDbLine
 10
1156.650529378917
 20
3640.384220944374
 30
0.0
 11
1138.494211917197
 21
3629.53085741667
 31
0.0
  0
LINE
  5
F1
330
1F
100
AcDbEntity
  8
bath
  6
Continuous
370
    15
100
AcDbLine
 10
2818.935903833909
 20
3640.384220943928
 30
0.0
 11
2837.092221294884
 21
3629.530857416668
 31
0.0
  0
SPLINE
  5
F2
330
1F
100
AcDbEntity
  8
bath
  6
Continuous
370
     0
100
AcDbSpline
210
0.0
220
0.0
230
1.0
 70
     8
 71
     3
 72
    76
 73
    72
 74
     0
 42
0.000000001
 43
0.0000000001
 40
0.0
 40
0.0
 40
0.0
 40
0.0
 40
0.0312500000000005
 40
0.0312500000000005
 40
0.062500000000001
 40
0.062500000000001
 40
0.0781250000000013
 40
0.0781250000000013
 40
0.0859375000000014
 40
0.0859375000000014
 40
0.0898437500000015
 40
0.0898437500000015
 40
0.0937500000000016
 40
0.0937500000000016
 40
0.1250000000000019
 40
0.1250000000000019
 40
0.1562500000000022
 40
0.1562500000000022
 40
0.1718750000000025
 40
0.1718750000000025
 40
0.1757812500000025
 40
0.1757812500000025
 40
0.1796875000000025
 40
0.1796875000000025
 40
0.1875000000000026
 40
0.1875000000000026
 40
0.2187500000000028
 40
0.2187500000000028
 40
0.250000000000003
 40
0.250000000000003
 40
0.2812500000000032
 40
0.2812500000000032
 40
0.2890625000000033
 40
0.2890625000000033
 40
0.2968750000000033
 40
0.2968750000000033
 40
0.3125000000000032
 40
0.3125000000000032
 40
0.3437500000000026
 40
0.3437500000000026
 40
0.3750000000000019
 40
0.3750000000000019
 40
0.4062500000000013
 40
0.4062500000000013
 40
0.4140625000000011
 40
0.4140625000000011
 40
0.421875000000001
 40
0.421875000000001
 40
0.4375000000000009
 40
0.4375000000000009
 40
0.5000000000000011
 40
0.5000000000000011
 40
0.5625000000000013
 40
0.5625000000000013
 40
0.6250000000000014
 40
0.6250000000000014
 40
0.6875000000000015
 40
0.6875000000000015
 40
0.7031250000000015
 40
0.7031250000000015
 40
0.7187500000000015
 40
0.7187500000000015
 40
0.7500000000000014
 40
0.7500000000000014
 40
0.812500000000001
 40
0.812500000000001
 40
0.8750000000000007
 40
0.8750000000000007
 40
0.9375000000000003
 40
0.9375000000000003
 40
1.0
 40
1.0
 40
1.0
 40
1.0
 10
2837.735885893604
 20
3626.713451228796
 30
0.0
 10
2837.737371531189
 20
3626.715879887919
 30
0.0
 10
2837.240117928419
 20
3626.718294601911
 30
0.0
 10
2835.153368406987
 20
3626.722992810605
 30
0.0
 10
2833.565020499099
 20
3626.725694389096
 30
0.0
 10
2830.285640390936
 20
3626.730292091865
 30
0.0
 10
2829.042653784587
 20
3626.731928684747
 30
0.0
 10
2826.943835524158
 20
3626.734630410481
 30
0.0
 10
2826.205138599989
 20
3626.735571636255
 30
0.0
 10
2825.03692992317
 20
3626.737051079393
 30
0.0
 10
2824.637531573954
 20
3626.737555414973
 30
0.0
 10
2823.821104662088
 20
3626.738583842352
 30
0.0
 10
2823.403770769076
 20
3626.739108357154
 30
0.0
 10
2819.565653163366
 20
3626.743921117128
 30
0.0
 10
2815.572806786699
 20
3626.74884271219
 30
0.0
 10
2806.447002566191
 20
3626.760379140794
 30
0.0
 10
2801.314000822489
 20
3626.766851032243
 30
0.0
 10
2792.776394225052
 20
3626.778098393277
 30
0.0
 10
2789.790411979045
 20
3626.781996395163
 30
0.0
 10
2785.885652714672
 20
3626.787047833814
 30
0.0
 10
2785.096078228996
 20
3626.78806808613
 30
0.0
 10
2783.499722657578
 20
3626.790131104912
 30
0.0
 10
2782.692458594223
 20
3626.791174498424
 30
0.0
 10
2780.252267576335
 20
3626.794333388315
 30
0.0
 10
2778.599022954634
 20
3626.79648229554
 30
0.0
 10
2770.204355280656
 20
3626.807468782695
 30
0.0
 10
2763.079270749361
 20
3626.816901987679
 30
0.0
 10
2748.104495209484
 20
3626.835659804789
 30
0.0
 10
2740.254448097515
 20
3626.844665678041
 30
0.0
 10
2723.907958768468
 20
3626.863295684991
 30
0.0
 10
2715.41088189085
 20
3626.873072624538
 30
0.0
 10
2704.423783139802
 20
3626.88505368878
 30
0.0
 10
2702.206429872547
 20
3626.887435145988
 30
0.0
 10
2697.743824405018
 20
3626.892148637752
 30
0.0
 10
2695.500617061641
 20
3626.894478593575
 30
0.0
 10
2688.736701038335
 20
3626.901390952482
 30
0.0
 10
2684.181722991323
 20
3626.905885597754
 30
0.0
 10
2670.390122489154
 20
3626.919259786659
 30
0.0
 10
2661.026836660656
 20
3626.928229625981
 30
0.0
 10
2642.004610235535
 20
3626.945119508653
 30
0.0
 10
2632.345620832729
 20
3626.952955365708
 30
0.0
 10
2612.769933958109
 20
3626.968427638217
 30
0.0
 10
2602.852979454998
 20
3626.976353148982
 30
0.0
 10
2590.311542648911
 20
3626.98532927047
 30
0.0
 10
2587.795990887837
 20
3626.987078753945
 30
0.0
 10
2582.750760903146
 20
3626.99050538613
 30
0.0
 10
2580.221631422588
 20
3626.992182135687
 30
0.0
 10
2572.627585011977
 20
3626.997127438948
 30
0.0
 10
2567.551456839498
 20
3627.000303831613
 30
0.0
 10
2542.108492739289
 20
3627.016234429613
 30
0.0
 10
2521.554660906295
 20
3627.027869855207
 30
0.0
 10
2480.136117955602
 20
3627.050076676142
 30
0.0
 10
2459.271106846058
 20
3627.064575069632
 30
0.0
 10
2417.288100821185
 20
3627.081532780284
 30
0.0
 10
2396.16987354901
 20
3627.08555254961
 30
0.0
 10
2353.722218559868
 20
3627.098114609121
 30
0.0
 10
2332.392529295073
 20
3627.104787747492
 30
0.0
 10
2305.616935408608
 20
3627.111831204979
 30
0.0
 10
2300.254961610762
 20
3627.113190504059
 30
0.0
 10
2289.525904728026
 20
3627.115789840793
 30
0.0
 10
2284.159826433507
 20
3627.117029652025
 30
0.0
 10
2268.057112342461
 20
3627.120547162468
 30
0.0
 10
2257.315998234787
 20
3627.122619394903
 30
0.0
 10
2225.076073817151
 20
3627.127915955926
 30
0.0
 10
2203.560678399112
 20
3627.130327410748
 30
0.0
 10
2160.491041616206
 20
3627.132398486463
 30
0.0
 10
2138.936638141836
 20
3627.133427131085
 30
0.0
 10
2095.794439038036
 20
3627.135632921164
 30
0.0
 10
2074.206699986987
 20
3627.136350381694
 30
0.0
 10
2031.003787345521
 20
3627.136304006788
 30
0.0
 10
2009.398727023035
 20
3627.135437004131
 30
0.0
 10
1987.793216606041
 20
3627.135662684543
 30
0.0
  0
LWPOLYLINE
  5
F3
330
1F
100
AcDbEntity
  8
bath
  6
Continuous
370
     0
100
AcDbPolyline
 90
        9
 70
   128
 43
0.0
 10
1987.793259727635
 20
3629.241210618918
 10
1987.793252830075
 20
3629.051821053022
 10
1987.793246085846
 20
3628.830211845024
 10
1987.793239645144
 20
3628.581318266557
 10
1987.793233651405
 20
3628.310683216438
 10
1987.793228238109
 20
3628.024333779454
 10
1987.793223525812
 20
3627.728647002237
 10
1987.793219619458
 20
3627.430207875442
 10
1987.793216606041
 20
3627.135662684543
  0
SPLINE
  5
F4
330
1F
100
AcDbEntity
  8
bath
  6
Continuous
370
     0
100
AcDbSpline
210
0.0
220
0.0
230
1.0
 70
     8
 71
     3
 72
    46
 73
    42
 74
     0
 42
0.000000001
 43
0.0000000001
 40
0.0
 40
0.0
 40
0.0
 40
0.0
 40
0.0609693374127454
 40
0.1016329259073481
 40
0.1422982388245022
 40
0.182960584432755
 40
0.2237287738889733
 40
0.2645002661589607
 40
0.3052667838667247
 40
0.3409058541254439
 40
0.3765444009528283
 40
0.4122631730794691
 40
0.4479810529082585
 40
0.4840540349122502
 40
0.5201254045894795
 40
0.5443082885801381
 40
0.5684953246375352
 40
0.592676101682719
 40
0.6143370900753764
 40
0.636003159934318
 40
0.6576616822243798
 40
0.6796067891353978
 40
0.7015608239319989
 40
0.7235012676364141
 40
0.7418580506943409
 40
0.7602238159725814
 40
0.7785770341617499
 40
0.7974033997652904
 40
0.8162447228335324
 40
0.83506650448873
 40
0.8501920944487764
 40
0.8653284064664125
 40
0.8804527320481728
 40
0.8960189867926088
 40
0.9115985450883503
 40
0.9271650907921465
 40
0.9417894418238187
 40
0.956424239180516
 40
0.9710499806978885
 40
0.9860088584908156
 40
1.0
 40
1.0
 40
1.0
 40
1.0
 10
1987.793259727635
 20
3629.241210617768
 30
0.0
 10
2008.51327564316
 20
3629.240567717537
 30
0.0
 10
2043.052536388046
 20
3629.239496034059
 30
0.0
 10
2091.399136909101
 20
3629.232455452758
 30
0.0
 10
2132.828832674693
 20
3629.226130283361
 30
0.0
 10
2174.264270890561
 20
3629.223497314548
 30
0.0
 10
2215.690712516394
 20
3629.224601388159
 30
0.0
 10
2257.088777434836
 20
3629.226140654394
 30
0.0
 10
2296.667512457821
 20
3629.228762218891
 30
0.0
 10
2334.413514358029
 20
3629.232207661979
 30
0.0
 10
2370.345576017681
 20
3629.236768307862
 30
0.0
 10
2406.160606652854
 20
3629.246763047464
 30
0.0
 10
2441.936179644662
 20
3629.257673311999
 30
0.0
 10
2477.592984415396
 20
3629.261885795234
 30
0.0
 10
2509.164115686881
 20
3629.268590653313
 30
0.0
 10
2536.582136296169
 20
3629.278591879038
 30
0.0
 10
2559.927185421291
 20
3629.287360189848
 30
0.0
 10
2582.217419301438
 20
3629.297347248328
 30
0.0
 10
2603.441224713906
 20
3629.307671778866
 30
0.0
 10
2623.588489865837
 20
3629.317954453585
 30
0.0
 10
2643.490113154722
 20
3629.329560242123
 30
0.0
 10
2663.083451271962
 20
3629.342381887205
 30
0.0
 10
2682.28489744082
 20
3629.355932094791
 30
0.0
 10
2699.910616980901
 20
3629.369640246949
 30
0.0
 10
2715.977925926679
 20
3629.383361823022
 30
0.0
 10
2730.531605768988
 20
3629.396868573218
 30
0.0
 10
2744.600334920078
 20
3629.411357805808
 30
0.0
 10
2758.075749279805
 20
3629.426036956023
 30
0.0
 10
2770.847475866918
 20
3629.440307417683
 30
0.0
 10
2781.931841664817
 20
3629.453687470374
 30
0.0
 10
2791.436365934606
 20
3629.465997195461
 30
0.0
 10
2799.528798969238
 20
3629.476884618648
 30
0.0
 10
2806.955589523962
 20
3629.487422683005
 30
0.0
 10
2813.641104437134
 20
3629.497341250889
 30
0.0
 10
2819.544779077039
 20
3629.506314886965
 30
0.0
 10
2824.485637406994
 20
3629.51395912114
 30
0.0
 10
2828.504566674482
 20
3629.52020120173
 30
0.0
 10
2831.687050409466
 20
3629.525096204299
 30
0.0
 10
2834.130144391169
 20
3629.528650820053
 30
0.0
 10
2835.862038310181
 20
3629.530929763786
 30
0.0
 10
2836.42479584696
 20
3629.531283915965
 30
0.0
 10
2836.696768734103
 20
3629.531455072785
 30
0.0
  0
SPLINE
  5
F5
330
1F
100
AcDbEntity
  8
bath
  6
Continuous
370
     0
100
AcDbSpline
210
0.0
220
0.0
230
1.0
 70
     8
 71
     3
 72
    74
 73
    70
 74
     0
 42
0.000000001
 43
0.0000000001
 40
0.0
 40
0.0
 40
0.0
 40
0.0
 40
0.0312500000000008
 40
0.0312500000000008
 40
0.0625000000000015
 40
0.0625000000000015
 40
0.0781250000000019
 40
0.0781250000000019
 40
0.0859375000000022
 40
0.0859375000000022
 40
0.0898437500000023
 40
0.0898437500000023
 40
0.0937500000000024
 40
0.0937500000000024
 40
0.1250000000000032
 40
0.1250000000000032
 40
0.156250000000004
 40
0.156250000000004
 40
0.1718750000000043
 40
0.1718750000000043
 40
0.1757812500000043
 40
0.1757812500000043
 40
0.1796875000000043
 40
0.1796875000000043
 40
0.1875000000000042
 40
0.1875000000000042
 40
0.2187500000000035
 40
0.2187500000000035
 40
0.2500000000000027
 40
0.2500000000000027
 40
0.281250000000002
 40
0.281250000000002
 40
0.2890625000000019
 40
0.2890625000000019
 40
0.2968750000000018
 40
0.2968750000000018
 40
0.3125000000000018
 40
0.3125000000000018
 40
0.3437500000000017
 40
0.3437500000000017
 40
0.3750000000000015
 40
0.3750000000000015
 40
0.4062500000000015
 40
0.4062500000000015
 40
0.4218750000000015
 40
0.4218750000000015
 40
0.4375000000000013
 40
0.4375000000000013
 40
0.500000000000001
 40
0.500000000000001
 40
0.5625000000000009
 40
0.5625000000000009
 40
0.6250000000000006
 40
0.6250000000000006
 40
0.6875000000000004
 40
0.6875000000000004
 40
0.7031250000000005
 40
0.7031250000000005
 40
0.7187500000000005
 40
0.7187500000000005
 40
0.7500000000000004
 40
0.7500000000000004
 40
0.8125000000000003
 40
0.8125000000000003
 40
0.8750000000000001
 40
0.8750000000000001
 40
0.9375000000000001
 40
0.9375000000000001
 40
1.0
 40
1.0
 40
1.0
 40
1.0
 10
1138.494211917197
 20
3629.53085741667
 30
0.0
 10
1138.490317719029
 20
3629.531876526896
 30
0.0
 10
1138.986003687323
 20
3629.532615509149
 30
0.0
 10
1141.072683579241
 20
3629.530198669248
 30
0.0
 10
1142.662710727864
 20
3629.527192896784
 30
0.0
 10
1145.94583886709
 20
3629.521816614154
 30
0.0
 10
1147.190290207517
 20
3629.519894659244
 30
0.0
 10
1149.29170571528
 20
3629.51669901884
 30
0.0
 10
1150.031335268526
 20
3629.515581043138
 30
0.0
 10
1151.201054357497
 20
3629.51380436457
 30
0.0
 10
1151.60093058901
 20
3629.513195590874
 30
0.0
 10
1152.418341421012
 20
3629.511944998199
 30
0.0
 10
1152.8361789923
 20
3629.511302192974
 30
0.0
 10
1156.678939674913
 20
3629.50535811161
 30
0.0
 10
1160.676585181434
 20
3629.499179547251
 30
0.0
 10
1169.812505451561
 20
3629.485686093326
 30
0.0
 10
1174.950776468671
 20
3629.478551060777
 30
0.0
 10
1183.496488943659
 20
3629.467097270406
 30
0.0
 10
1186.48518463064
 20
3629.463150402162
 30
0.0
 10
1190.393329497999
 20
3629.458053216032
 30
0.0
 10
1191.183580837851
 20
3629.457026510389
 30
0.0
 10
1192.781289068996
 20
3629.454960978469
 30
0.0
 10
1193.589113474692
 20
3629.45392169137
 30
0.0
 10
1196.030715811162
 20
3629.450799361532
 30
0.0
 10
1197.684870766963
 20
3629.448708524945
 30
0.0
 10
1206.083924049068
 20
3629.438272713668
 30
0.0
 10
1213.211947857987
 20
3629.430064672231
 30
0.0
 10
1228.190859016036
 20
3629.413862843235
 30
0.0
 10
1236.042089202801
 20
3629.405741911317
 30
0.0
 10
1252.389592188291
 20
3629.389829131874
 30
0.0
 10
1260.88648692875
 20
3629.382194274878
 30
0.0
 10
1271.872262845623
 20
3629.372920608962
 30
0.0
 10
1274.089466895704
 20
3629.371073811962
 30
0.0
 10
1278.550389263673
 20
3629.367413295892
 30
0.0
 10
1280.792710611925
 20
3629.365600697476
 30
0.0
 10
1287.553839231182
 20
3629.360237176079
 30
0.0
 10
1292.10678607145
 20
3629.356757253873
 30
0.0
 10
1305.891806804177
 20
3629.346906041616
 30
0.0
 10
1315.250052941401
 20
3629.341128403311
 30
0.0
 10
1334.261096595267
 20
3629.328978334964
 30
0.0
 10
1343.913954481545
 20
3629.322610205504
 30
0.0
 10
1363.476350123988
 20
3629.311465058597
 30
0.0
 10
1373.386137110055
 20
3629.306697624869
 30
0.0
 10
1388.424319112067
 20
3629.29963056252
 30
0.0
 10
1393.470512716653
 20
3629.297293161228
 30
0.0
 10
1403.586558970111
 20
3629.292718267718
 30
0.0
 10
1408.657956203702
 20
3629.290476521896
 30
0.0
 10
1434.077036852478
 20
3629.279700847386
 30
0.0
 10
1454.610875835876
 20
3629.272808307705
 30
0.0
 10
1495.988319883246
 20
3629.260426367613
 30
0.0
 10
1516.832426267119
 20
3629.255080062886
 30
0.0
 10
1558.772071231548
 20
3629.245572466047
 30
0.0
 10
1579.867917926998
 20
3629.241756515618
 30
0.0
 10
1622.270429629567
 20
3629.234951226937
 30
0.0
 10
1643.577219850278
 20
3629.232112258846
 30
0.0
 10
1670.323735571302
 20
3629.229522305822
 30
0.0
 10
1675.679902170372
 20
3629.229061202741
 30
0.0
 10
1686.397013727603
 20
3629.228230637223
 30
0.0
 10
1691.757116616189
 20
3629.227861195962
 30
0.0
 10
1707.841896516857
 20
3629.226859941758
 30
0.0
 10
1718.571043841704
 20
3629.226331936528
 30
0.0
 10
1750.77503787972
 20
3629.224997008302
 30
0.0
 10
1772.266439587166
 20
3629.224479383213
 30
0.0
 10
1815.287998847855
 20
3629.224198133037
 30
0.0
 10
1836.818315629022
 20
3629.226102107557
 30
0.0
 10
1879.912321256894
 20
3629.232020084782
 30
0.0
 10
1901.475956832944
 20
3629.23542503798
 30
0.0
 10
1944.630770689336
 20
3629.239918929143
 30
0.0
 10
1966.211768512478
 20
3629.240923236588
 30
0.0
 10
1987.793259727635
 20
3629.241210618916
 30
0.0
  0
SPLINE
  5
F6
330
1F
100
AcDbEntity
  8
bath
  6
Continuous
370
     0
100
AcDbSpline
210
0.0
220
0.0
230
1.0
 70
     8
 71
     3
 72
    76
 73
    72
 74
     0
 42
0.000000001
 43
0.0000000001
 40
0.0
 40
0.0
 40
0.0
 40
0.0
 40
0.0624999999999983
 40
0.0624999999999983
 40
0.1249999999999966
 40
0.1249999999999966
 40
0.1874999999999948
 40
0.1874999999999948
 40
0.2499999999999931
 40
0.2499999999999931
 40
0.2812499999999922
 40
0.2812499999999922
 40
0.296874999999992
 40
0.296874999999992
 40
0.3124999999999916
 40
0.3124999999999916
 40
0.3749999999999904
 40
0.3749999999999904
 40
0.4374999999999892
 40
0.4374999999999892
 40
0.499999999999988
 40
0.499999999999988
 40
0.5624999999999868
 40
0.5624999999999868
 40
0.5781249999999867
 40
0.5781249999999867
 40
0.5859374999999866
 40
0.5859374999999866
 40
0.5937499999999865
 40
0.5937499999999865
 40
0.6249999999999864
 40
0.6249999999999864
 40
0.6562499999999863
 40
0.6562499999999863
 40
0.6874999999999862
 40
0.6874999999999862
 40
0.7031249999999862
 40
0.7031249999999862
 40
0.7109374999999862
 40
0.7109374999999862
 40
0.7187499999999862
 40
0.7187499999999862
 40
0.7499999999999869
 40
0.7499999999999869
 40
0.7812499999999877
 40
0.7812499999999877
 40
0.8124999999999884
 40
0.8124999999999884
 40
0.8203124999999886
 40
0.8203124999999886
 40
0.8242187499999889
 40
0.8242187499999889
 40
0.8281249999999891
 40
0.8281249999999891
 40
0.84374999999999
 40
0.84374999999999
 40
0.874999999999992
 40
0.874999999999992
 40
0.9062499999999939
 40
0.9062499999999939
 40
0.9101562499999941
 40
0.9101562499999941
 40
0.9140624999999943
 40
0.9140624999999943
 40
0.9218749999999948
 40
0.9218749999999948
 40
0.9374999999999957
 40
0.9374999999999957
 40
0.968749999999998
 40
0.968749999999998
 40
1.0
 40
1.0
 40
1.0
 40
1.0
 10
1987.793216606041
 20
3627.135662684543
 30
0.0
 10
1966.187702403119
 20
3627.135437010923
 30
0.0
 10
1944.582638280867
 20
3627.13631153214
 30
0.0
 10
1901.379717468114
 20
3627.136508611874
 30
0.0
 10
1879.791973648379
 20
3627.135917469469
 30
0.0
 10
1836.649768544916
 20
3627.133738146373
 30
0.0
 10
1815.095363554145
 20
3627.132625340487
 30
0.0
 10
1772.025722949977
 20
3627.130442750121
 30
0.0
 10
1750.510325405453
 20
3627.127992868117
 30
0.0
 10
1718.270398910011
 20
3627.12257234678
 30
0.0
 10
1707.529284281183
 20
3627.120448999175
 30
0.0
 10
1691.426568701499
 20
3627.116904552558
 30
0.0
 10
1686.060489792989
 20
3627.115664009723
 30
0.0
 10
1675.331431284372
 20
3627.113089888201
 30
0.0
 10
1669.96945636441
 20
3627.111756545242
 30
0.0
 10
1643.193850673242
 20
3627.104933612841
 30
0.0
 10
1621.864134312598
 20
3627.098714379926
 30
0.0
 10
1579.416560029465
 20
3627.084687186755
 30
0.0
 10
1558.298576290497
 20
3627.076553035834
 30
0.0
 10
1516.315593445438
 20
3627.059349524293
 30
0.0
 10
1495.45028074937
 20
3627.049644611177
 30
0.0
 10
1454.031664069814
 20
3627.028376345054
 30
0.0
 10
1433.477860689446
 20
3627.016212080671
 30
0.0
 10
1408.034877154449
 20
3627.000399609336
 30
0.0
 10
1402.958751453799
 20
3626.997158927206
 30
0.0
 10
1395.364710648626
 20
3626.992094957566
 30
0.0
 10
1392.835582664277
 20
3626.990374941422
 30
0.0
 10
1387.790363620297
 20
3626.986871954858
 30
0.0
 10
1385.274816573343
 20
3626.985089396394
 30
0.0
 10
1372.73339285298
 20
3626.976014414976
 30
0.0
 10
1362.816413874699
 20
3626.968229159763
 30
0.0
 10
1343.240640410345
 20
3626.953222287199
 30
0.0
 10
1333.581585480251
 20
3626.945723822934
 30
0.0
 10
1314.559348589276
 20
3626.928801563792
 30
0.0
 10
1305.19612501672
 20
3626.919444574993
 30
0.0
 10
1291.404563036076
 20
3626.905810252598
 30
0.0
 10
1286.849587476803
 20
3626.901285213016
 30
0.0
 10
1280.085665091787
 20
3626.894376646247
 30
0.0
 10
1277.842453958572
 20
3626.892056157193
 30
0.0
 10
1273.379838597028
 20
3626.887372084471
 30
0.0
 10
1271.162480096872
 20
3626.885010568309
 30
0.0
 10
1260.175348739457
 20
3626.873140184558
 30
0.0
 10
1251.67823091415
 20
3626.863485174514
 30
0.0
 10
1235.331849914013
 20
3626.844518694587
 30
0.0
 10
1227.481959813386
 20
3626.8350537849
 30
0.0
 10
1212.507233949273
 20
3626.816177780125
 30
0.0
 10
1205.382030754423
 20
3626.807089593406
 30
0.0
 10
1196.98725692029
 20
3626.796386169872
 30
0.0
 10
1195.333993453089
 20
3626.79428646954
 30
0.0
 10
1192.893777915006
 20
3626.791190441978
 30
0.0
 10
1192.086507236896
 20
3626.7901661891
 30
0.0
 10
1190.490142157681
 20
3626.788137692083
 30
0.0
 10
1189.700563707152
 20
3626.78713283398
 30
0.0
 10
1185.795788671174
 20
3626.78214898977
 30
0.0
 10
1182.809806521222
 20
3626.778275518012
 30
0.0
 10
1174.272248507928
 20
3626.767000310012
 30
0.0
 10
1169.13935235336
 20
3626.760361822159
 30
0.0
 10
1160.013610854651
 20
3626.748765800114
 30
0.0
 10
1156.020699780543
 20
3626.743981291256
 30
0.0
 10
1152.18260925228
 20
3626.739136379075
 30
0.0
 10
1151.765280025881
 20
3626.738605312738
 30
0.0
 10
1150.948864624385
 20
3626.737559937315
 30
0.0
 10
1150.549473028233
 20
3626.73704520971
 30
0.0
 10
1149.381289225075
 20
3626.735532489167
 30
0.0
 10
1148.642610528983
 20
3626.734566248988
 30
0.0
 10
1146.543832571119
 20
3626.731811521719
 30
0.0
 10
1145.300854189712
 20
3626.730168339836
 30
0.0
 10
1142.021268759452
 20
3626.725905785556
 30
0.0
 10
1140.432410705228
 20
3626.723995991348
 30
0.0
 10
1138.345827704858
 20
3626.719039298695
 30
0.0
 10
1137.849061734822
 20
3626.715879805971
 30
0.0
 10
1137.850547318475
 20
3626.713451228801
 30
0.0
  0
LWPOLYLINE
  5
F8
330
1F
100
AcDbEntity
  8
bath
  6
Continuous
370
     0
100
AcDbPolyline
 90
        4
 70
   128
 43
0.0
 10
1987.793216330345
 20
3637.754187657563
 10
1987.793216409406
 20
3638.469409396341
 10
1987.79321648328
 20
3638.816131957007
 10
1987.793216506947
 20
3638.845445738502
  0
SPLINE
  5
FC
330
1F
100
AcDbEntity
  8
bath
  6
Continuous
370
     0
100
AcDbSpline
210
0.0
220
0.0
230
1.0
 70
     8
 71
     3
 72
     9
 73
     5
 74
     0
 42
0.000000001
 43
0.0000000001
 40
0.0
 40
0.0
 40
0.0
 40
0.0
 40
0.9184075396483704
 40
1.0
 40
1.0
 40
1.0
 40
1.0
 10
2837.092221294884
 20
3629.530857416669
 30
0.0
 10
2837.088473713499
 20
3629.531371444436
 30
0.0
 10
2837.084393192353
 20
3629.531931139065
 30
0.0
 10
2836.720942226307
 20
3629.531799050442
 30
0.0
 10
2836.69128736777
 20
3629.531788273007
 30
0.0
  0
SPLINE
  5
11A
330
1F
100
AcDbEntity
  8
bath
  6
Continuous
370
    15
100
AcDbSpline
210
0.0
220
0.0
230
1.0
 70
     8
 71
     3
 72
    80
 73
    76
 74
     0
 42
0.000000001
 43
0.0000000001
 40
0.0
 40
0.0
 40
0.0
 40
0.0
 40
0.0045562806584149
 40
0.0151247761628371
 40
0.0246868760841496
 40
0.0335334408173574
 40
0.0429695043432667
 40
0.0520170376666773
 40
0.0612457493731002
 40
0.0704686963277254
 40
0.079665447295554
 40
0.0888197337509254
 40
0.0979165530461449
 40
0.1069423937200366
 40
0.1158854167299659
 40
0.1247357149259898
 40
0.1335073074741788
 40
0.1423312961742914
 40
0.1512911985305171
 40
0.1603781803883767
 40
0.1695816438775748
 40
0.1788882359771801
 40
0.1882818062918522
 40
0.1977434204028622
 40
0.207251451915458
 40
0.2168123345798865
 40
0.2266809175973383
 40
0.2367520922676678
 40
0.2470245774428894
 40
0.2575117931486592
 40
0.2682266556705249
 40
0.2791817046112283
 40
0.2903890339395345
 40
0.3018467268695002
 40
0.3137633795703527
 40
0.3259247157328345
 40
0.3383325442116095
 40
0.3510113551528557
 40
0.3639873391966778
 40
0.377289154396462
 40
0.3909485640234056
 40
0.4050012987532499
 40
0.419488238716215
 40
0.4344570725316572
 40
0.4499646898836762
 40
0.4660827649051864
 40
0.4828770511821541
 40
0.4999679486547043
 40
0.5174371397495574
 40
0.5353299953299512
 40
0.5536994322638617
 40
0.572607302501676
 40
0.5921271843498932
 40
0.6123483700671711
 40
0.6333819250096248
 40
0.6552751936786537
 40
0.6775231749333953
 40
0.7003303489510517
 40
0.7237385384632215
 40
0.7477998332504302
 40
0.7725765250744653
 40
0.7981464147039917
 40
0.8246309962367471
 40
0.8516032058610424
 40
0.8792189957165955
 40
0.907543857306803
 40
0.936659501588466
 40
0.9536293392046379
 40
0.9665541758374974
 40
0.9759323261280831
 40
0.9832617821781386
 40
0.989423160876483
 40
0.9948131190408444
 40
0.9997827715364017
 40
1.0
 40
1.0
 40
1.0
 40
1.0
 10
3827.223876959614
 20
3641.235787408976
 30
0.0
 10
3825.695975678327
 20
3641.234703071366
 30
0.0
 10
3820.624039463051
 20
3641.231103564473
 30
0.0
 10
3812.348185721533
 20
3641.224009826811
 30
0.0
 10
3802.64396038442
 20
3641.214479264858
 30
0.0
 10
3793.337481061945
 20
3641.203708086461
 30
0.0
 10
3784.234505534914
 20
3641.191372210268
 30
0.0
 10
3775.048627044931
 20
3641.176827532208
 30
0.0
 10
3765.98570498183
 20
3641.16040190153
 30
0.0
 10
3756.937850428513
 20
3641.141829136449
 30
0.0
 10
3747.989158464442
 20
3641.121226999179
 30
0.0
 10
3739.166871035042
 20
3641.098619817865
 30
0.0
 10
3730.495594351459
 20
3641.074039241182
 30
0.0
 10
3721.99816635572
 20
3641.047521836015
 30
0.0
 10
3713.695361058894
 20
3641.019117770573
 30
0.0
 10
3705.599310169088
 20
3640.988828390453
 30
0.0
 10
3697.67868177593
 20
3640.956588999103
 30
0.0
 10
3689.869649203798
 20
3640.922375687554
 30
0.0
 10
3682.120573588262
 20
3640.88605766519
 30
0.0
 10
3674.423853944154
 20
3640.847680444659
 30
0.0
 10
3666.799881885736
 20
3640.807424372728
 30
0.0
 10
3659.270495186936
 20
3640.765496046009
 30
0.0
 10
3651.859274289028
 20
3640.722127387621
 30
0.0
 10
3644.590760619453
 20
3640.677580451829
 30
0.0
 10
3637.48479376601
 20
3640.632081060966
 30
0.0
 10
3630.48850783103
 20
3640.58547302226
 30
0.0
 10
3623.567373851732
 20
3640.537712229332
 30
0.0
 10
3616.701410961129
 20
3640.488723025929
 30
0.0
 10
3609.922601816606
 20
3640.438854671615
 30
0.0
 10
3603.235647512234
 20
3640.388278664957
 30
0.0
 10
3596.642294196916
 20
3640.337163388437
 30
0.0
 10
3590.144393498369
 20
3640.285708156873
 30
0.0
 10
3583.748596168836
 20
3640.234136959683
 30
0.0
 10
3577.41860830804
 20
3640.182503508402
 30
0.0
 10
3571.1649410886
 20
3640.131044006332
 30
0.0
 10
3565.005591318841
 20
3640.079875609519
 30
0.0
 10
3558.982044450166
 20
3640.029378054328
 30
0.0
 10
3553.09423851116
 20
3639.979579058603
 30
0.0
 10
3547.338120197851
 20
3639.930481561591
 30
0.0
 10
3541.709313002628
 20
3639.882090072646
 30
0.0
 10
3536.20282352432
 20
3639.834410884759
 30
0.0
 10
3530.812807133936
 20
3639.787451937102
 30
0.0
 10
3525.532305810029
 20
3639.74122110872
 30
0.0
 10
3520.352551671621
 20
3639.695730927524
 30
0.0
 10
3515.263104732565
 20
3639.650974587257
 30
0.0
 10
3510.249561368312
 20
3639.607029757593
 30
0.0
 10
3505.357326015764
 20
3639.563687514914
 30
0.0
 10
3500.625170787122
 20
3639.521298279222
 30
0.0
 10
3496.08366351489
 20
3639.480080037865
 30
0.0
 10
3491.723787786687
 20
3639.439911558844
 30
0.0
 10
3487.539531599888
 20
3639.400685311677
 30
0.0
 10
3483.524059306946
 20
3639.362278136749
 30
0.0
 10
3479.669111724519
 20
3639.324540313687
 30
0.0
 10
3475.965603443987
 20
3639.287300424648
 30
0.0
 10
3472.404044407955
 20
3639.250358222078
 30
0.0
 10
3469.026607510275
 20
3639.214098416753
 30
0.0
 10
3465.858646517554
 20
3639.178630836698
 30
0.0
 10
3462.918149239464
 20
3639.144018535788
 30
0.0
 10
3460.198625539325
 20
3639.110019206678
 30
0.0
 10
3457.70097545719
 20
3639.076446165073
 30
0.0
 10
3455.426318765772
 20
3639.043077467557
 30
0.0
 10
3453.372223956759
 20
3639.009595773094
 30
0.0
 10
3451.558392817934
 20
3638.975888187714
 30
0.0
 10
3450.002401214401
 20
3638.943165214175
 30
0.0
 10
3448.710618360673
 20
3638.912526869317
 30
0.0
 10
3447.695265910105
 20
3638.885449494467
 30
0.0
 10
3447.033345071658
 20
3638.86564680941
 30
0.0
 10
3446.727857814795
 20
3638.855372333244
 30
0.0
 10
3446.442201640534
 20
3638.84627207662
 30
0.0
 10
3446.007885803859
 20
3638.8162501461
 30
0.0
 10
3445.488824474818
 20
3638.740611110933
 30
0.0
 10
3444.860006149016
 20
3638.606683567302
 30
0.0
 10
3444.105430547366
 20
3638.311271255564
 30
0.0
 10
3443.513606637356
 20
3638.073208958723
 30
0.0
 10
3443.196091023488
 20
3637.815921854701
 30
0.0
 10
3443.109833454207
 20
3637.754187657257
 30
0.0
  0
SPLINE
  5
11B
330
1F
100
AcDbEntity
  8
bath
  6
Continuous
370
    15
100
AcDbSpline
210
0.0
220
0.0
230
1.0
 70
     8
 71
     3
 72
    78
 73
    74
 74
     0
 42
0.000000001
 43
0.0000000001
 40
0.0
 40
0.0
 40
0.0
 40
0.0
 40
0.0010183187963387
 40
0.0061076543548466
 40
0.0114622695529032
 40
0.0174781605721967
 40
0.0245842685858764
 40
0.0333566350958928
 40
0.0447157238235046
 40
0.0575652868136257
 40
0.0886943533065641
 40
0.1188486964812642
 40
0.1480278796544811
 40
0.1763683343207445
 40
0.203966414216599
 40
0.2309068456207506
 40
0.25729976613673
 40
0.282729274703001
 40
0.3073162094842867
 40
0.3311504487684132
 40
0.3543039020368792
 40
0.3768359336277598
 40
0.3988543217650312
 40
0.4202780470703543
 40
0.4407760273114522
 40
0.4604910007391132
 40
0.4795384731742296
 40
0.4980100299344087
 40
0.5159803047295118
 40
0.5335115657876836
 40
0.5506580353368901
 40
0.5674894522007498
 40
0.5835880892233386
 40
0.5990201347692934
 40
0.6138745649678599
 40
0.6282222155865847
 40
0.6421209219693969
 40
0.6556192423214217
 40
0.6687589167768273
 40
0.6815765487321759
 40
0.6941047906059041
 40
0.7063732023066534
 40
0.7183976052217601
 40
0.7299111767541441
 40
0.7411293928239824
 40
0.7520801817285236
 40
0.762779663421898
 40
0.7732440114710732
 40
0.78348950208506
 40
0.7935329405752887
 40
0.8033720284114254
 40
0.8129957472760956
 40
0.8225699683881815
 40
0.8320722976659794
 40
0.8414825533137578
 40
0.8507835551466087
 40
0.8599611956857289
 40
0.8690044226969941
 40
0.8779059931142038
 40
0.886690337575273
 40
0.895505665496387
 40
0.9044128262614826
 40
0.9134016404726013
 40
0.9224606743471996
 40
0.9315768788862968
 40
0.9407357343937961
 40
0.9499214388769219
 40
0.9591171421156033
 40
0.9682999783742246
 40
0.9772506001790507
 40
0.9868030862091995
 40
0.9972287284913134
 40
1.0
 40
1.0
 40
1.0
 40
1.0
 10
4211.173905703923
 20
3637.849766776604
 30
0.0
 10
4211.111732587294
 20
3637.895538165988
 30
0.0
 10
4210.7388317748
 20
3638.170064990698
 30
0.0
 10
4210.134630196638
 20
3638.401677571679
 30
0.0
 10
4209.434173757089
 20
3638.644165392424
 30
0.0
 10
4208.863670978659
 20
3638.756805085289
 30
0.0
 10
4208.396223637016
 20
3638.819369438364
 30
0.0
 10
4208.011748635505
 20
3638.845644880657
 30
0.0
 10
4207.749824000944
 20
3638.854524481896
 30
0.0
 10
4207.486874481285
 20
3638.86327234772
 30
0.0
 10
4206.85792457955
 20
3638.882588364616
 30
0.0
 10
4205.807153237577
 20
3638.910881672686
 30
0.0
 10
4204.449352992842
 20
3638.943223623183
 30
0.0
 10
4202.808050185194
 20
3638.977638228127
 30
0.0
 10
4200.882895767395
 20
3639.013050980524
 30
0.0
 10
4198.682545861303
 20
3639.048376593793
 30
0.0
 10
4196.217451672202
 20
3639.083987986595
 30
0.0
 10
4193.497333988553
 20
3639.119919832737
 30
0.0
 10
4190.542089533129
 20
3639.156184723097
 30
0.0
 10
4187.353152809651
 20
3639.192979376494
 30
0.0
 10
4183.933186244212
 20
3639.230466762057
 30
0.0
 10
4180.278992655241
 20
3639.268792486564
 30
0.0
 10
4176.403601176015
 20
3639.308083612136
 30
0.0
 10
4172.326020280348
 20
3639.348297328114
 30
0.0
 10
4168.069229589545
 20
3639.389258077683
 30
0.0
 10
4163.653732387312
 20
3639.43086116678
 30
0.0
 10
4159.06910706311
 20
3639.473277851395
 30
0.0
 10
4154.306673830253
 20
3639.51665056512
 30
0.0
 10
4149.359410494053
 20
3639.561089565879
 30
0.0
 10
4144.220581211414
 20
3639.606710470062
 30
0.0
 10
4138.883928038377
 20
3639.653556343383
 30
0.0
 10
4133.388803957709
 20
3639.701929102897
 30
0.0
 10
4127.766895809951
 20
3639.751304463937
 30
0.0
 10
4122.064427562201
 20
3639.801181950103
 30
0.0
 10
4116.270997328911
 20
3639.851557021416
 30
0.0
 10
4110.374612044234
 20
3639.902465354718
 30
0.0
 10
4104.365918606117
 20
3639.953931107081
 30
0.0
 10
4098.237480853448
 20
3640.005972267033
 30
0.0
 10
4091.983149525123
 20
3640.05860282529
 30
0.0
 10
4085.597742559224
 20
3640.111835107003
 30
0.0
 10
4079.076473456115
 20
3640.165679261978
 30
0.0
 10
4072.41780988141
 20
3640.220133338193
 30
0.0
 10
4065.672937989183
 20
3640.274731471016
 30
0.0
 10
4058.853869594243
 20
3640.328892442907
 30
0.0
 10
4051.985669527217
 20
3640.382267285602
 30
0.0
 10
4045.029344525361
 20
3640.434968151376
 30
0.0
 10
4037.984843097444
 20
3640.48683575964
 30
0.0
 10
4030.85407318636
 20
3640.537717154386
 30
0.0
 10
4023.637617299931
 20
3640.587473404107
 30
0.0
 10
4016.34286215511
 20
3640.635986204902
 30
0.0
 10
4008.973542614665
 20
3640.682989147135
 30
0.0
 10
4001.508428174818
 20
3640.72849275081
 30
0.0
 10
3993.929173804864
 20
3640.772541309472
 30
0.0
 10
3986.213577383375
 20
3640.815138890513
 30
0.0
 10
3978.387868641092
 20
3640.856020545299
 30
0.0
 10
3970.476979475624
 20
3640.894947464344
 30
0.0
 10
3962.50417079177
 20
3640.931710469565
 30
0.0
 10
3954.490726486174
 20
3640.966127666717
 30
0.0
 10
3946.446576181418
 20
3640.998086933206
 30
0.0
 10
3938.334410309926
 20
3641.027623714041
 30
0.0
 10
3930.098418243027
 20
3641.055078240706
 30
0.0
 10
3921.687251507875
 20
3641.080668395397
 30
0.0
 10
3913.09770872156
 20
3641.104420647204
 30
0.0
 10
3904.349919731732
 20
3641.126293838484
 30
0.0
 10
3895.465816431443
 20
3641.146252293045
 30
0.0
 10
3886.469191137602
 20
3641.164267336615
 30
0.0
 10
3877.385262224669
 20
3641.180314486859
 30
0.0
 10
3868.243125215047
 20
3641.194386258017
 30
0.0
 10
3859.137244374392
 20
3641.20635468999
 30
0.0
 10
3849.884143902431
 20
3641.216731561624
 30
0.0
 10
3840.19870357456
 20
3641.225910687054
 30
0.0
 10
3832.575753351179
 20
3641.232273750375
 30
0.0
 10
3828.152701913546
 20
3641.235349915924
 30
0.0
 10
3827.223888054119
 20
3641.235995891951
 30
0.0
  0
LINE
  5
11C
330
1F
100
AcDbEntity
  8
bath
  6
Continuous
370
    15
100
AcDbLine
 10
4223.571774516532
 20
3629.153767193546
 30
0.0
 11
4211.246226767747
 21
3637.79779456848
 31
0.0
  0
LINE
  5
11D
330
1F
100
AcDbEntity
  8
bath
  6
Continuous
370
    15
100
AcDbLine
 10
3443.109833454207
 20
3637.754187657257
 30
0.0
 11
3430.8780966576
 21
3629.155248464348
 31
0.0
  0
LINE
  5
11E
330
1F
100
AcDbEntity
  8
bath
  6
Continuous
370
    15
100
AcDbLine
 10
4211.246226767747
 20
3637.79779456848
 30
0.0
 11
4211.173459992626
 21
3637.850128036643
 31
0.0
  0
SPLINE
  5
11F
330
1F
100
AcDbEntity
  8
bath
  6
Continuous
370
    15
100
AcDbSpline
210
0.0
220
0.0
230
1.0
 70
     8
 71
     3
 72
    17
 73
    13
 74
     0
 42
0.000000001
 43
0.0000000001
 40
0.0
 40
0.0
 40
0.0
 40
0.0
 40
0.0523179132985655
 40
0.1744445741879209
 40
0.2849358407416478
 40
0.3871550491878333
 40
0.4961861438699726
 40
0.6007219331674776
 40
0.7073446033416455
 40
0.8139007445053007
 40
0.9201541374771473
 40
1.0
 40
1.0
 40
1.0
 40
1.0
 10
3827.223875744823
 20
3641.235952707756
 30
0.0
 10
3825.705293870854
 20
3641.23488279487
 30
0.0
 10
3820.641858583165
 20
3641.231315364787
 30
0.0
 10
3812.373918345158
 20
3641.224258064798
 30
0.0
 10
3802.667850559472
 20
3641.214740527135
 30
0.0
 10
3793.359889395591
 20
3641.203955577659
 30
0.0
 10
3784.255656564572
 20
3641.191564573894
 30
0.0
 10
3775.069059802844
 20
3641.176965577832
 30
0.0
 10
3766.00493955299
 20
3641.160517125376
 30
0.0
 10
3756.959148907886
 20
3641.141860421831
 30
0.0
 10
3748.729728413553
 20
3641.12310623643
 30
0.0
 10
3743.562704120595
 20
3641.109602604546
 30
0.0
 10
3741.345792987603
 20
3641.103808872958
 30
0.0
  0
ARC
  5
121
330
1F
100
AcDbEntity
  8
bath
  6
Continuous
370
    15
100
AcDbCircle
 10
3432.150594449359
 20
3627.605057855492
 30
0.0
 40
2.000000187233437
100
AcDbArc
 50
125.1073067952656
 51
193.5738191902153
  0
ARC
  5
122
330
1F
100
AcDbEntity
  8
bath
  6
Continuous
370
    15
100
AcDbCircle
 10
4222.297169662481
 20
3627.605057854344
 30
0.0
 40
2.000000743563021
100
AcDbArc
 50
346.4261808307857
 51
54.89270823696571
  0
SPLINE
  5
125
330
1F
100
AcDbEntity
  8
bath
  6
Continuous
370
    15
100
AcDbSpline
210
0.0
220
0.0
230
1.0
 70
     8
 71
     3
 72
    19
 73
    15
 74
     0
 42
0.000000001
 43
0.0000000001
 40
0.0
 40
0.0
 40
0.0
 40
0.0
 40
0.0772403127051835
 40
0.154480625410367
 40
0.2317209381155504
 40
0.3089612508207339
 40
0.360186937364003
 40
0.4401635701935027
 40
0.5201402030230023
 40
0.6001168358525019
 40
0.6800934686820015
 40
0.7600701015115012
 40
0.8400467343410007
 40
0.8416017379619969
 40
0.8416017379619969
 40
0.8416017379619969
 40
0.8416017379619969
 10
4132.22388205478
 20
3026.458382542098
 30
0.0
 10
4133.367968827363
 20
3042.819585638872
 30
0.0
 10
4135.861231350292
 20
3075.468544721433
 30
0.0
 10
4140.216392067996
 20
3124.221642012365
 30
0.0
 10
4145.186819719022
 20
3172.754397970441
 30
0.0
 10
4150.145424849801
 20
3215.642920323928
 30
0.0
 10
4155.63024524319
 20
3258.937120715078
 30
0.0
 10
4161.663296978627
 20
3302.629114676181
 30
0.0
 10
4169.177350261485
 20
3352.033323125137
 30
0.0
 10
4177.351035610689
 20
3401.201302060299
 30
0.0
 10
4186.184353026253
 20
3450.133051481729
 30
0.0
 10
4195.677302508193
 20
3498.828571389483
 30
0.0
 10
4202.511489847597
 20
3531.448833271805
 30
0.0
 10
4206.075738701168
 20
3547.875080865346
 30
0.0
 10
4206.143759026281
 20
3548.188353873014
 30
0.0
  0
SPLINE
  5
126
330
1F
100
AcDbEntity
  8
bath
  6
Continuous
370
    15
100
AcDbSpline
210
0.0
220
0.0
230
1.0
 70
     8
 71
     3
 72
    31
 73
    27
 74
     0
 42
0.000000001
 43
0.0000000001
 40
0.0
 40
0.0
 40
0.0
 40
0.0
 40
0.03125
 40
0.0625
 40
0.09375
 40
0.125
 40
0.15625
 40
0.1666666666666666
 40
0.1875
 40
0.21875
 40
0.25
 40
0.3125
 40
0.375
 40
0.4375
 40
0.4444444444444445
 40
0.5
 40
0.5555555555555556
 40
0.5625
 40
0.625
 40
0.6875
 40
0.75
 40
0.8125
 40
0.8333333333333333
 40
0.875
 40
0.9375
 40
1.0
 40
1.0
 40
1.0
 40
1.0
 10
3827.223882055103
 20
3026.458382546963
 30
0.0
 10
3832.503343519431
 20
3026.458382546963
 30
0.0
 10
3842.998036890043
 20
3026.458382546934
 30
0.0
 10
3858.528496969448
 20
3026.458382546821
 30
0.0
 10
3873.828485769958
 20
3026.458382546658
 30
0.0
 10
3888.879111989189
 20
3026.458382546465
 30
0.0
 10
3900.376512694629
 20
3026.458382546306
 30
0.0
 10
3910.10380750232
 20
3026.458382546173
 30
0.0
 10
3919.733288214397
 20
3026.458382546046
 30
0.0
 10
3932.345902135366
 20
3026.458382545885
 30
0.0
 10
3950.831585962397
 20
3026.458382545659
 30
0.0
 10
3973.079143013184
 20
3026.458382545401
 30
0.0
 10
3998.249804682244
 20
3026.458382545111
 30
0.0
 10
4014.782003374977
 20
3026.458382544911
 30
0.0
 10
4029.766802039617
 20
3026.458382544717
 30
0.0
 10
4043.338133773256
 20
3026.458382544531
 30
0.0
 10
4055.801430384752
 20
3026.458382544344
 30
0.0
 10
4068.293150024571
 20
3026.45838254415
 30
0.0
 10
4080.645775058044
 20
3026.45838254395
 30
0.0
 10
4095.917446481491
 20
3026.45838254366
 30
0.0
 10
4108.755928598576
 20
3026.45838254335
 30
0.0
 10
4116.73138823652
 20
3026.458382543079
 30
0.0
 10
4122.35174087783
 20
3026.458382542824
 30
0.0
 10
4127.043484535511
 20
3026.458382542549
 30
0.0
 10
4131.160934920869
 20
3026.458382542216
 30
0.0
 10
4132.22388205478
 20
3026.458382542098
 30
0.0
 10
4132.22388205478
 20
3026.458382542098
 30
0.0
  0
SPLINE
  5
127
330
1F
100
AcDbEntity
  8
bath
  6
Continuous
370
    15
100
AcDbSpline
210
0.0
220
0.0
230
1.0
 70
     8
 71
     3
 72
     8
 73
     4
 74
     0
 42
0.000000001
 43
0.0000000001
 40
0.92448035412825
 40
0.92448035412825
 40
0.92448035412825
 40
0.92448035412825
 40
0.9727517315762575
 40
0.9727517315762575
 40
0.9727517315762575
 40
0.9727517315762575
 10
4217.373990529036
 20
3598.152006260936
 30
0.0
 10
4219.623045758554
 20
3607.827567938659
 30
0.0
 10
4221.912151093329
 20
3617.488786746527
 30
0.0
 10
4224.24130653336
 20
3627.135662684543
 30
0.0
  0
SPLINE
  5
128
330
1F
100
AcDbEntity
  8
bath
  6
Continuous
370
    15
100
AcDbSpline
210
0.0
220
0.0
230
1.0
 70
     8
 71
     3
 72
    63
 73
    59
 74
     0
 42
0.000000001
 43
0.0000000001
 40
0.0
 40
0.0
 40
0.0
 40
0.0
 40
0.0624999999999905
 40
0.0624999999999905
 40
0.0937499999999861
 40
0.0937499999999861
 40
0.1249999999999817
 40
0.1249999999999817
 40
0.1874999999999744
 40
0.1874999999999744
 40
0.2031249999999721
 40
0.2031249999999721
 40
0.2187499999999698
 40
0.2187499999999698
 40
0.2499999999999656
 40
0.2499999999999656
 40
0.3124999999999542
 40
0.3124999999999542
 40
0.3281249999999521
 40
0.3281249999999521
 40
0.34374999999995
 40
0.34374999999995
 40
0.3749999999999497
 40
0.4062499999999494
 40
0.4062499999999494
 40
0.4218749999999473
 40
0.4218749999999473
 40
0.4374999999999451
 40
0.4374999999999451
 40
0.4999999999999437
 40
0.4999999999999437
 40
0.531249999999943
 40
0.531249999999943
 40
0.5468749999999449
 40
0.5468749999999449
 40
0.5624999999999467
 40
0.5624999999999467
 40
0.6249999999999505
 40
0.6249999999999505
 40
0.6562499999999525
 40
0.6562499999999525
 40
0.6874999999999544
 40
0.6874999999999544
 40
0.7499999999999613
 40
0.7499999999999613
 40
0.7812499999999662
 40
0.7812499999999662
 40
0.812499999999971
 40
0.812499999999971
 40
0.8437499999999758
 40
0.8437499999999758
 40
0.8749999999999808
 40
0.8749999999999808
 40
0.9374999999999904
 40
0.9374999999999904
 40
0.9687499999999952
 40
0.9687499999999952
 40
1.0
 40
1.0
 40
1.0
 40
1.0
 10
4217.373990529036
 20
3598.152006260936
 30
0.0
 10
4217.374000319954
 20
3598.152004976345
 30
0.0
 10
4217.33547010002
 20
3597.989665177752
 30
0.0
 10
4217.222403809262
 20
3597.512728480661
 30
0.0
 10
4217.175438171135
 20
3597.314553839943
 30
0.0
 10
4217.062604285481
 20
3596.83802533919
 30
0.0
 10
4216.996446755778
 20
3596.558444808391
 30
0.0
 10
4216.773898066477
 20
3595.61685467151
 30
0.0
 10
4216.592656949572
 20
3594.848785511758
 30
0.0
 10
4216.326050674261
 20
3593.714869008392
 30
0.0
 10
4216.270709063397
 20
3593.479315617616
 30
0.0
 10
4216.155939577882
 20
3592.990387791049
 30
0.0
 10
4216.096336441588
 20
3592.736265020042
 30
0.0
 10
4215.912847141272
 20
3591.953211651576
 30
0.0
 10
4215.784350787134
 20
3591.403900176625
 30
0.0
 10
4215.381150943471
 20
3589.6766463158
 30
0.0
 10
4215.088904601159
 20
3588.420135994689
 30
0.0
 10
4214.694304223138
 20
3586.714946091983
 30
0.0
 10
4214.613718944516
 20
3586.366308154054
 30
0.0
 10
4214.451233525883
 20
3585.662479232683
 30
0.0
 10
4214.369185371123
 20
3585.306650472424
 30
0.0
 10
4214.12069010224
 20
3584.227628188979
 30
0.0
 10
4213.783106875359
 20
3582.758223166719
 30
0.0
 10
4213.433390724575
 20
3581.228238365691
 30
0.0
 10
4213.16654715806
 20
3580.057693430855
 30
0.0
 10
4213.076838364712
 20
3579.663662307846
 30
0.0
 10
4212.895878643055
 20
3578.867759002481
 30
0.0
 10
4212.804530147344
 20
3578.465453336851
 30
0.0
 10
4212.348924793956
 20
3576.456235587225
 30
0.0
 10
4211.98423933126
 20
3574.839385457273
 30
0.0
 10
4211.43697706516
 20
3572.40022525907
 30
0.0
 10
4211.254513545103
 20
3571.584841963856
 30
0.0
 10
4210.980728385337
 20
3570.358167055753
 30
0.0
 10
4210.889486161551
 20
3569.948826164261
 30
0.0
 10
4210.708984061966
 20
3569.138002637527
 30
0.0
 10
4210.619468569844
 20
3568.73537559113
 30
0.0
 10
4210.175491144189
 20
3566.735947495118
 30
0.0
 10
4209.831740155291
 20
3565.179875480991
 30
0.0
 10
4209.332871261552
 20
3562.911626454921
 30
0.0
 10
4209.168535532077
 20
3562.162677172346
 30
0.0
 10
4208.851461778517
 20
3560.714601223747
 30
0.0
 10
4208.698398105567
 20
3560.014015087926
 30
0.0
 10
4208.255069610745
 20
3557.981036934315
 30
0.0
 10
4207.980516811716
 20
3556.716751141325
 30
0.0
 10
4207.600704098939
 20
3554.962645169267
 30
0.0
 10
4207.481088880935
 20
3554.409291622928
 30
0.0
 10
4207.256812711788
 20
3553.370437940047
 30
0.0
 10
4207.151890047657
 20
3552.883728013241
 30
0.0
 10
4206.956258668608
 20
3551.975280577808
 30
0.0
 10
4206.865549643452
 20
3551.553540814951
 30
0.0
 10
4206.698553825
 20
3550.776456411616
 30
0.0
 10
4206.622028344303
 20
3550.419996977649
 30
0.0
 10
4206.419017515298
 20
3549.473774325354
 30
0.0
 10
4206.317195505441
 20
3548.998375610159
 30
0.0
 10
4206.21382513921
 20
3548.515654342716
 30
0.0
 10
4206.187635472332
 20
3548.39331622948
 30
0.0
 10
4206.15253704346
 20
3548.229362697408
 30
0.0
 10
4206.143758108519
 20
3548.188353993427
 30
0.0
 10
4206.143759026281
 20
3548.188353873014
 30
0.0
  0
SPLINE
  5
129
330
1F
100
AcDbEntity
  8
bath
  6
Continuous
370
    15
100
AcDbSpline
210
0.0
220
0.0
230
1.0
 70
     8
 71
     3
 72
    31
 73
    27
 74
     0
 42
0.000000001
 43
0.0000000001
 40
0.0
 40
0.0
 40
0.0
 40
0.0
 40
0.03125
 40
0.0625
 40
0.09375
 40
0.125
 40
0.15625
 40
0.1666666666666666
 40
0.1875
 40
0.21875
 40
0.25
 40
0.3125
 40
0.375
 40
0.4375
 40
0.4444444444444445
 40
0.5
 40
0.5555555555555556
 40
0.5625
 40
0.625
 40
0.6875
 40
0.75
 40
0.8125
 40
0.8333333333333333
 40
0.875
 40
0.9375
 40
1.0
 40
1.0
 40
1.0
 40
1.0
 10
3827.223882055103
 20
3026.458382546963
 30
0.0
 10
3821.944420590777
 20
3026.458382546963
 30
0.0
 10
3811.449727220164
 20
3026.458382546934
 30
0.0
 10
3795.919267140759
 20
3026.458382546821
 30
0.0
 10
3780.61927834025
 20
3026.458382546658
 30
0.0
 10
3765.568652121018
 20
3026.458382546465
 30
0.0
 10
3754.071251415578
 20
3026.458382546306
 30
0.0
 10
3744.343956607887
 20
3026.458382546173
 30
0.0
 10
3734.71447589581
 20
3026.458382546046
 30
0.0
 10
3722.101861974841
 20
3026.458382545885
 30
0.0
 10
3703.61617814781
 20
3026.458382545659
 30
0.0
 10
3681.368621097022
 20
3026.458382545401
 30
0.0
 10
3656.197959427963
 20
3026.458382545111
 30
0.0
 10
3639.665760735229
 20
3026.458382544911
 30
0.0
 10
3624.68096207059
 20
3026.458382544717
 30
0.0
 10
3611.109630336951
 20
3026.458382544531
 30
0.0
 10
3598.646333725455
 20
3026.458382544344
 30
0.0
 10
3586.154614085636
 20
3026.45838254415
 30
0.0
 10
3573.801989052162
 20
3026.45838254395
 30
0.0
 10
3558.530317628715
 20
3026.45838254366
 30
0.0
 10
3545.691835511631
 20
3026.45838254335
 30
0.0
 10
3537.716375873686
 20
3026.458382543079
 30
0.0
 10
3532.096023232377
 20
3026.458382542824
 30
0.0
 10
3527.404279574695
 20
3026.458382542549
 30
0.0
 10
3523.286829189337
 20
3026.458382542216
 30
0.0
 10
3522.223882055426
 20
3026.458382542098
 30
0.0
 10
3522.223882055426
 20
3026.458382542098
 30
0.0
  0
SPLINE
  5
12A
330
1F
100
AcDbEntity
  8
bath
  6
Continuous
370
    15
100
AcDbSpline
210
0.0
220
0.0
230
1.0
 70
     8
 71
     3
 72
    20
 73
    16
 74
     0
 42
0.000000001
 43
0.0000000001
 40
0.0
 40
0.0
 40
0.0
 40
0.0
 40
0.0772403127051835
 40
0.154480625410367
 40
0.2317209381155504
 40
0.3089612508207339
 40
0.360186937364003
 40
0.4401635701935027
 40
0.5201402030230023
 40
0.6001168358525019
 40
0.6800934686820015
 40
0.7600701015115012
 40
0.8400467343410007
 40
0.9200233671705003
 40
0.9727517315762568
 40
0.9727517315762568
 40
0.9727517315762568
 40
0.9727517315762568
 10
3522.223882055426
 20
3026.458382542098
 30
0.0
 10
3521.079795282844
 20
3042.819585638872
 30
0.0
 10
3518.586532759914
 20
3075.468544721433
 30
0.0
 10
3514.23137204221
 20
3124.221642012365
 30
0.0
 10
3509.260944391184
 20
3172.754397970441
 30
0.0
 10
3504.302339260406
 20
3215.642920323928
 30
0.0
 10
3498.817518867017
 20
3258.937120715078
 30
0.0
 10
3492.78446713158
 20
3302.629114676181
 30
0.0
 10
3485.270413848721
 20
3352.033323125137
 30
0.0
 10
3477.096728499518
 20
3401.201302060299
 30
0.0
 10
3468.263411083955
 20
3450.133051481729
 30
0.0
 10
3458.770461602014
 20
3498.828571389483
 30
0.0
 10
3448.617880053684
 20
3547.287861783621
 30
0.0
 10
3439.03358384601
 20
3590.034344232893
 30
0.0
 10
3432.750668313984
 20
3616.598072569474
 30
0.0
 10
3430.206457576846
 20
3627.135662684543
 30
0.0
  0
LINE
  5
12B
330
1F
100
AcDbEntity
  8
bath
  6
Continuous
370
    15
100
AcDbLine
 10
4206.143759026281
 20
3548.188353873014
 30
0.0
 11
4206.178862016911
 21
3548.352323251013
 31
0.0
  0
SPLINE
  5
12C
330
1F
100
AcDbEntity
  8
bath
  6
Continuous
370
     0
100
AcDbSpline
210
0.0
220
0.0
230
1.0
 70
     8
 71
     3
 72
     8
 73
     4
 74
     0
 42
0.000000001
 43
0.0000000001
 40
0.0
 40
0.0
 40
0.0
 40
0.0
 40
1.0
 40
1.0
 40
1.0
 40
1.0
 10
3827.22388204801
 20
3626.770225293376
 30
0.0
 10
3827.223882051463
 20
3626.751100198442
 30
0.0
 10
3827.223882054926
 20
3626.732171942281
 30
0.0
 10
3827.223882055103
 20
3626.713451228801
 30
0.0
  0
SPLINE
  5
12D
330
1F
100
AcDbEntity
  8
bath
  6
Continuous
370
     0
100
AcDbSpline
210
0.0
220
0.0
230
1.0
 70
     8
 71
     3
 72
    76
 73
    72
 74
     0
 42
0.000000001
 43
0.0000000001
 40
0.0
 40
0.0
 40
0.0
 40
0.0
 40
0.0312500000000005
 40
0.0312500000000005
 40
0.062500000000001
 40
0.062500000000001
 40
0.0781250000000013
 40
0.0781250000000013
 40
0.0859375000000014
 40
0.0859375000000014
 40
0.0898437500000015
 40
0.0898437500000015
 40
0.0937500000000016
 40
0.0937500000000016
 40
0.1250000000000019
 40
0.1250000000000019
 40
0.1562500000000022
 40
0.1562500000000022
 40
0.1718750000000025
 40
0.1718750000000025
 40
0.1757812500000025
 40
0.1757812500000025
 40
0.1796875000000025
 40
0.1796875000000025
 40
0.1875000000000026
 40
0.1875000000000026
 40
0.2187500000000028
 40
0.2187500000000028
 40
0.250000000000003
 40
0.250000000000003
 40
0.2812500000000032
 40
0.2812500000000032
 40
0.2890625000000033
 40
0.2890625000000033
 40
0.2968750000000033
 40
0.2968750000000033
 40
0.3125000000000032
 40
0.3125000000000032
 40
0.3437500000000026
 40
0.3437500000000026
 40
0.3750000000000019
 40
0.3750000000000019
 40
0.4062500000000013
 40
0.4062500000000013
 40
0.4140625000000011
 40
0.4140625000000011
 40
0.421875000000001
 40
0.421875000000001
 40
0.4375000000000009
 40
0.4375000000000009
 40
0.5000000000000011
 40
0.5000000000000011
 40
0.5625000000000013
 40
0.5625000000000013
 40
0.6250000000000014
 40
0.6250000000000014
 40
0.6875000000000015
 40
0.6875000000000015
 40
0.7031250000000015
 40
0.7031250000000015
 40
0.7187500000000015
 40
0.7187500000000015
 40
0.7500000000000014
 40
0.7500000000000014
 40
0.812500000000001
 40
0.812500000000001
 40
0.8750000000000007
 40
0.8750000000000007
 40
0.9375000000000003
 40
0.9375000000000003
 40
1.0
 40
1.0
 40
1.0
 40
1.0
 10
3827.223882055103
 20
3626.713451228796
 30
0.0
 10
3816.311340772367
 20
3626.715879887919
 30
0.0
 10
3805.469411186831
 20
3626.718294601911
 30
0.0
 10
3783.940192084591
 20
3626.722992810605
 30
0.0
 10
3773.252740142148
 20
3626.725694389096
 30
0.0
 10
3757.348539920843
 20
3626.730292091865
 30
0.0
 10
3752.068357099483
 20
3626.731928684747
 30
0.0
 10
3744.181260649765
 20
3626.734630410481
 30
0.0
 10
3741.557763006931
 20
3626.735571636255
 30
0.0
 10
3737.631034503192
 20
3626.737051079393
 30
0.0
 10
3736.323732536777
 20
3626.737555414973
 30
0.0
 10
3733.720349615242
 20
3626.738583842352
 30
0.0
 10
3732.423226874433
 20
3626.739108357154
 30
0.0
 10
3720.790255030495
 20
3626.743921117128
 30
0.0
 10
3710.740970486965
 20
3626.74884271219
 30
0.0
 10
3691.213520123255
 20
3626.760379140794
 30
0.0
 10
3681.735376202384
 20
3626.766851032243
 30
0.0
 10
3667.937993912034
 20
3626.778098393277
 30
0.0
 10
3663.409053769659
 20
3626.781996395163
 30
0.0
 10
3657.834179898524
 20
3626.787047833814
 30
0.0
 10
3656.723524478242
 20
3626.78806808613
 30
0.0
 10
3654.510832978441
 20
3626.790131104912
 30
0.0
 10
3653.408165976149
 20
3626.791174498424
 30
0.0
 10
3650.122882270689
 20
3626.794333388315
 30
0.0
 10
3647.960231187376
 20
3626.79648229554
 30
0.0
 10
3637.280701021771
 20
3626.807468782695
 30
0.0
 10
3629.16325656772
 20
3626.816901987679
 30
0.0
 10
3613.682762734469
 20
3626.835659804789
 30
0.0
 10
3606.320083701657
 20
3626.844665678041
 30
0.0
 10
3592.267694956039
 20
3626.863295684991
 30
0.0
 10
3585.578646184887
 20
3626.873072624538
 30
0.0
 10
3577.598123748844
 20
3626.88505368878
 30
0.0
 10
3576.01995278144
 20
3626.887435145988
 30
0.0
 10
3572.906216805698
 20
3626.892148637752
 30
0.0
 10
3571.372023291475
 20
3626.894478593575
 30
0.0
 10
3566.834761836406
 20
3626.901390952482
 30
0.0
 10
3563.896966061407
 20
3626.905885597754
 30
0.0
 10
3555.324837928259
 20
3626.919259786659
 30
0.0
 10
3549.931759399617
 20
3626.928229625981
 30
0.0
 10
3539.708729479866
 20
3626.945119508653
 30
0.0
 10
3534.878870910878
 20
3626.952955365708
 30
0.0
 10
3525.710005841789
 20
3626.968427638217
 30
0.0
 10
3521.371489379723
 20
3626.976353148982
 30
0.0
 10
3516.224985559769
 20
3626.98532927047
 30
0.0
 10
3515.209521105741
 20
3626.987078753945
 30
0.0
 10
3513.205498523945
 20
3626.99050538613
 30
0.0
 10
3512.217175143828
 20
3626.992182135687
 30
0.0
 10
3509.296639237483
 20
3626.997127438948
 30
0.0
 10
3507.40701556255
 20
3627.000303831613
 30
0.0
 10
3498.225258672577
 20
3627.016234429613
 30
0.0
 10
3491.732319508684
 20
3627.027869855207
 30
0.0
 10
3480.075096748978
 20
3627.050076676142
 30
0.0
 10
3474.912102555482
 20
3627.064575069632
 30
0.0
 10
3465.66731167088
 20
3627.081532780284
 30
0.0
 10
3461.586510933983
 20
3627.08555254961
 30
0.0
 10
3454.327561010888
 20
3627.098114609121
 30
0.0
 10
3451.150526182694
 20
3627.104787747492
 30
0.0
 10
3447.664238823592
 20
3627.111831204979
 30
0.0
 10
3446.991111301905
 20
3627.113190504059
 30
0.0
 10
3445.692573226611
 20
3627.115789840793
 30
0.0
 10
3445.067270936059
 20
3627.117029652025
 30
0.0
 10
3443.260629962002
 20
3627.120547162468
 30
0.0
 10
3442.148543310122
 20
3627.122619394903
 30
0.0
 10
3439.068706522717
 20
3627.127915955926
 30
0.0
 10
3437.357426306896
 20
3627.130327410748
 30
0.0
 10
3434.535573265827
 20
3627.132398486463
 30
0.0
 10
3433.427509226201
 20
3627.133427131085
 30
0.0
 10
3431.727755542886
 20
3627.135632921164
 30
0.0
 10
3431.135190325079
 20
3627.136350381694
 30
0.0
 10
3430.374303787948
 20
3627.136304006788
 30
0.0
 10
3430.206032986815
 20
3627.135437004131
 30
0.0
 10
3430.206457576846
 20
3627.135662684543
 30
0.0
  0
SPLINE
  5
12E
330
1F
100
AcDbEntity
  8
bath
  6
Continuous
370
     0
100
AcDbSpline
210
0.0
220
0.0
230
1.0
 70
     8
 71
     3
 72
    74
 73
    70
 74
     0
 42
0.000000001
 43
0.0000000001
 40
0.0
 40
0.0
 40
0.0
 40
0.0
 40
0.0625000000000001
 40
0.0625000000000001
 40
0.1250000000000002
 40
0.1250000000000002
 40
0.1875000000000004
 40
0.1875000000000004
 40
0.2500000000000006
 40
0.2500000000000006
 40
0.2812500000000008
 40
0.2812500000000008
 40
0.296875000000001
 40
0.296875000000001
 40
0.3125000000000011
 40
0.3125000000000011
 40
0.3750000000000014
 40
0.3750000000000014
 40
0.4375000000000017
 40
0.4375000000000017
 40
0.500000000000002
 40
0.500000000000002
 40
0.5625000000000026
 40
0.5625000000000026
 40
0.5781250000000028
 40
0.5781250000000028
 40
0.5937500000000031
 40
0.5937500000000031
 40
0.6250000000000037
 40
0.6250000000000037
 40
0.6562500000000045
 40
0.6562500000000045
 40
0.6875000000000052
 40
0.6875000000000052
 40
0.7031250000000055
 40
0.7031250000000055
 40
0.7109375000000057
 40
0.7109375000000057
 40
0.7187500000000058
 40
0.7187500000000058
 40
0.7500000000000057
 40
0.7500000000000057
 40
0.7812500000000055
 40
0.7812500000000055
 40
0.8125000000000053
 40
0.8125000000000053
 40
0.8203125000000051
 40
0.8203125000000051
 40
0.8242187500000051
 40
0.8242187500000051
 40
0.8281250000000049
 40
0.8281250000000049
 40
0.8437500000000046
 40
0.8437500000000046
 40
0.8750000000000037
 40
0.8750000000000037
 40
0.9062500000000028
 40
0.9062500000000028
 40
0.9101562500000028
 40
0.9101562500000028
 40
0.9140625000000026
 40
0.9140625000000026
 40
0.9218750000000024
 40
0.9218750000000024
 40
0.9375000000000019
 40
0.9375000000000019
 40
0.968750000000001
 40
0.968750000000001
 40
1.0
 40
1.0
 40
1.0
 40
1.0
 10
3431.000375279594
 20
3629.241210617768
 30
0.0
 10
3430.999966324247
 20
3629.240922956604
 30
0.0
 10
3431.170055321118
 20
3629.239911168259
 30
0.0
 10
3431.935434215093
 20
3629.235260734228
 30
0.0
 10
3432.530659915843
 20
3629.231723985688
 30
0.0
 10
3434.234448985728
 20
3629.22577681291
 30
0.0
 10
3435.343839160494
 20
3629.22396028518
 30
0.0
 10
3438.165655256419
 20
3629.224358254324
 30
0.0
 10
3439.875620067269
 20
3629.224915639129
 30
0.0
 10
3442.951509789195
 20
3629.226378639245
 30
0.0
 10
3444.061952853931
 20
3629.226960183258
 30
0.0
 10
3445.86561190732
 20
3629.227991166685
 30
0.0
 10
3446.489834225068
 20
3629.228362129397
 30
0.0
 10
3447.786036045171
 20
3629.2291683867
 30
0.0
 10
3448.457927519247
 20
3629.22960364974
 30
0.0
 10
3451.937587304658
 20
3629.231971034736
 30
0.0
 10
3455.107945495458
 20
3629.234329196488
 30
0.0
 10
3462.35058888935
 20
3629.242607265144
 30
0.0
 10
3466.421850596925
 20
3629.250602355726
 30
0.0
 10
3475.643833474683
 20
3629.260667493408
 30
0.0
 10
3480.793172044923
 20
3629.260970234506
 30
0.0
 10
3492.418725540498
 20
3629.272226300514
 30
0.0
 10
3498.893589692189
 20
3629.279763826461
 30
0.0
 10
3508.048436390748
 20
3629.290372292496
 30
0.0
 10
3509.932480051035
 20
3629.292673996962
 30
0.0
 10
3513.814923568388
 20
3629.297409942145
 30
0.0
 10
3515.814108475698
 20
3629.299846764433
 30
0.0
 10
3521.972072677354
 20
3629.307054862348
 30
0.0
 10
3526.297931642974
 20
3629.311685626373
 30
0.0
 10
3535.439961548661
 20
3629.322357083365
 30
0.0
 10
3540.255657324716
 20
3629.328367127637
 30
0.0
 10
3550.448576515728
 20
3629.340511659179
 30
0.0
 10
3555.825691734332
 20
3629.346687213983
 30
0.0
 10
3564.372519207976
 20
3629.356826760719
 30
0.0
 10
3567.301656749824
 20
3629.360343746477
 30
0.0
 10
3571.825561374315
 20
3629.36570860299
 30
0.0
 10
3573.355241295132
 20
3629.367512758315
 30
0.0
 10
3576.459822434202
 20
3629.371144800941
 30
0.0
 10
3578.033814491682
 20
3629.372971573725
 30
0.0
 10
3585.992709958553
 20
3629.382132091514
 30
0.0
 10
3592.663904598111
 20
3629.389632664634
 30
0.0
 10
3606.679749705995
 20
3629.405869213763
 30
0.0
 10
3614.023758427014
 20
3629.414472780535
 30
0.0
 10
3629.466193220514
 20
3629.430832687051
 30
0.0
 10
3637.564257429206
 20
3629.438685866883
 30
0.0
 10
3648.219390640777
 20
3629.448820146992
 30
0.0
 10
3650.377156357103
 20
3629.45085827954
 30
0.0
 10
3653.655108715962
 20
3629.453913173505
 30
0.0
 10
3654.755439973205
 20
3629.454931884224
 30
0.0
 10
3656.963796217161
 20
3629.456960209495
 30
0.0
 10
3658.072289343844
 20
3629.457970270461
 30
0.0
 10
3663.636379082939
 20
3629.462994060244
 30
0.0
 10
3668.15677908175
 20
3629.466913170968
 30
0.0
 10
3681.928827095273
 20
3629.47838965797
 30
0.0
 10
3691.390503850608
 20
3629.485699121097
 30
0.0
 10
3710.886085647578
 20
3629.499262248316
 30
0.0
 10
3720.919999709976
 20
3629.505297296783
 30
0.0
 10
3732.53646484862
 20
3629.511271601982
 30
0.0
 10
3733.831765222021
 20
3629.511920924586
 30
0.0
 10
3736.43152688508
 20
3629.513188800866
 30
0.0
 10
3737.737017320341
 20
3629.513808311572
 30
0.0
 10
3741.658769509983
 20
3629.515619659678
 30
0.0
 10
3744.278964242093
 20
3629.516764036611
 30
0.0
 10
3752.156194753185
 20
3629.520016569922
 30
0.0
 10
3757.429857149176
 20
3629.521947382509
 30
0.0
 10
3773.314664430036
 20
3629.526979848862
 30
0.0
 10
3783.989413278419
 20
3629.529153279604
 30
0.0
 10
3805.493679258827
 20
3629.531831174253
 30
0.0
 10
3816.323358385529
 20
3629.531876564322
 30
0.0
 10
3827.223882055103
 20
3629.53085741667
 30
0.0
  0
SPLINE
  5
12F
330
1F
100
AcDbEntity
  8
bath
  6
Continuous
370
     0
100
AcDbSpline
210
0.0
220
0.0
230
1.0
 70
     8
 71
     3
 72
    76
 73
    72
 74
     0
 42
0.000000001
 43
0.0000000001
 40
0.0
 40
0.0
 40
0.0
 40
0.0
 40
0.0625000000000011
 40
0.0625000000000011
 40
0.1250000000000021
 40
0.1250000000000021
 40
0.1875000000000032
 40
0.1875000000000032
 40
0.2500000000000043
 40
0.2500000000000043
 40
0.2812500000000048
 40
0.2812500000000048
 40
0.2968750000000051
 40
0.2968750000000051
 40
0.3125000000000054
 40
0.3125000000000054
 40
0.3750000000000069
 40
0.3750000000000069
 40
0.4375000000000083
 40
0.4375000000000083
 40
0.5000000000000097
 40
0.5000000000000097
 40
0.5625000000000111
 40
0.5625000000000111
 40
0.5781250000000112
 40
0.5781250000000112
 40
0.5859375000000111
 40
0.5859375000000111
 40
0.5937500000000111
 40
0.5937500000000111
 40
0.6250000000000103
 40
0.6250000000000103
 40
0.6562500000000097
 40
0.6562500000000097
 40
0.6875000000000089
 40
0.6875000000000089
 40
0.7031250000000088
 40
0.7031250000000088
 40
0.7109375000000086
 40
0.7109375000000086
 40
0.7187500000000084
 40
0.7187500000000084
 40
0.7500000000000076
 40
0.7500000000000076
 40
0.7812500000000068
 40
0.7812500000000068
 40
0.8125000000000058
 40
0.8125000000000058
 40
0.8203125000000056
 40
0.8203125000000056
 40
0.8242187500000055
 40
0.8242187500000055
 40
0.8281250000000055
 40
0.8281250000000055
 40
0.8437500000000049
 40
0.8437500000000049
 40
0.8750000000000039
 40
0.8750000000000039
 40
0.9062500000000028
 40
0.9062500000000028
 40
0.9101562500000026
 40
0.9101562500000026
 40
0.9140625000000024
 40
0.9140625000000024
 40
0.9218750000000023
 40
0.9218750000000023
 40
0.9375000000000019
 40
0.9375000000000019
 40
0.968750000000001
 40
0.968750000000001
 40
1.0
 40
1.0
 40
1.0
 40
1.0
 10
4224.24130653336
 20
3627.135662684543
 30
0.0
 10
4224.241731125116
 20
3627.135437010923
 30
0.0
 10
4224.073462225285
 20
3627.13631153214
 30
0.0
 10
4223.312610882749
 20
3627.136508611874
 30
0.0
 10
4222.720074318746
 20
3627.135917469468
 30
0.0
 10
4221.020324921635
 20
3627.133738146373
 30
0.0
 10
4219.912240903113
 20
3627.132625340488
 30
0.0
 10
4217.090361610781
 20
3627.130442750121
 30
0.0
 10
4215.379072388476
 20
3627.127992868115
 30
0.0
 10
4212.299206359898
 20
3627.122572346779
 30
0.0
 10
4211.187107552071
 20
3627.120448999175
 30
0.0
 10
4209.380459573931
 20
3627.11690455256
 30
0.0
 10
4208.755156819757
 20
3627.115664009725
 30
0.0
 10
4207.45662405985
 20
3627.113089888203
 30
0.0
 10
4206.783502307859
 20
3627.111756545243
 30
0.0
 10
4203.297265020164
 20
3627.104933612843
 30
0.0
 10
4200.120341626583
 20
3627.098714379925
 30
0.0
 10
4192.861034145788
 20
3627.084687186754
 30
0.0
 10
4188.779188391285
 20
3627.076553035833
 30
0.0
 10
4179.534265372844
 20
3627.059349524294
 30
0.0
 10
4174.372529541794
 20
3627.049644611177
 30
0.0
 10
4162.715564549112
 20
3627.028376345054
 30
0.0
 10
4156.222470877916
 20
3627.01621208067
 30
0.0
 10
4147.04074472252
 20
3627.000399609335
 30
0.0
 10
4145.15109969287
 20
3626.997158927206
 30
0.0
 10
4142.230522896921
 20
3626.992094957566
 30
0.0
 10
4141.242184164872
 20
3626.990374941421
 30
0.0
 10
4139.238137187644
 20
3626.986871954856
 30
0.0
 10
4138.222661841782
 20
3626.985089396392
 30
0.0
 10
4133.076122775275
 20
3626.976014414976
 30
0.0
 10
4128.737642237995
 20
3626.968229159766
 30
0.0
 10
4119.568915796775
 20
3626.953222287201
 30
0.0
 10
4114.739166415263
 20
3626.945723822931
 30
0.0
 10
4104.51612106323
 20
3626.92880156379
 30
0.0
 10
4099.122904240924
 20
3626.919444574993
 30
0.0
 10
4090.550668114633
 20
3626.9058102526
 30
0.0
 10
4087.61285521453
 20
3626.901285213017
 30
0.0
 10
4083.075585991368
 20
3626.894376646247
 30
0.0
 10
4081.541392849646
 20
3626.892056157195
 30
0.0
 10
4078.427661584646
 20
3626.887372084471
 30
0.0
 10
4076.849495574714
 20
3626.885010568308
 30
0.0
 10
4068.868999963989
 20
3626.873140184557
 30
0.0
 10
4062.179985933111
 20
3626.863485174512
 30
0.0
 10
4048.127464581185
 20
3626.844518694586
 30
0.0
 10
4040.764610154288
 20
3626.835053784902
 30
0.0
 10
4025.284034419732
 20
3626.816177780127
 30
0.0
 10
4017.166695250034
 20
3626.807089593406
 30
0.0
 10
4006.48724920857
 20
3626.79638616987
 30
0.0
 10
4004.324612285756
 20
3626.794286469539
 30
0.0
 10
4001.03934564076
 20
3626.791190441977
 30
0.0
 10
3999.936684888478
 20
3626.790166189099
 30
0.0
 10
3997.724007891805
 20
3626.788137692082
 30
0.0
 10
3996.613359255217
 20
3626.787132833979
 30
0.0
 10
3991.038516908584
 20
3626.782148989769
 30
0.0
 10
3986.509594453833
 20
3626.778275518012
 30
0.0
 10
3972.712237492203
 20
3626.767000310012
 30
0.0
 10
3963.234069090211
 20
3626.76036182216
 30
0.0
 10
3943.706634175876
 20
3626.748765800114
 30
0.0
 10
3933.657400479459
 20
3626.743981291256
 30
0.0
 10
3922.024430324303
 20
3626.739136379075
 30
0.0
 10
3920.727306864217
 20
3626.738605312738
 30
0.0
 10
3918.123921259503
 20
3626.737559937315
 30
0.0
 10
3916.816616974193
 20
3626.737045209708
 30
0.0
 10
3912.88989240285
 20
3626.735532489167
 30
0.0
 10
3910.266397001519
 20
3626.734566248988
 30
0.0
 10
3902.379308874447
 20
3626.731811521719
 30
0.0
 10
3897.099133657706
 20
3626.730168339836
 30
0.0
 10
3881.194987063537
 20
3626.725905785556
 30
0.0
 10
3870.50762136734
 20
3626.723995991348
 30
0.0
 10
3848.978403190885
 20
3626.719039298696
 30
0.0
 10
3838.13641496451
 20
3626.715879805971
 30
0.0
 10
3827.223882055103
 20
3626.713451228801
 30
0.0
  0
SPLINE
  5
130
330
1F
100
AcDbEntity
  8
bath
  6
Continuous
370
     0
100
AcDbSpline
210
0.0
220
0.0
230
1.0
 70
     8
 71
     3
 72
    74
 73
    70
 74
     0
 42
0.000000001
 43
0.0000000001
 40
0.0
 40
0.0
 40
0.0
 40
0.0
 40
0.0312500000000002
 40
0.0312500000000002
 40
0.0625000000000004
 40
0.0625000000000004
 40
0.0781250000000005
 40
0.0781250000000005
 40
0.0859375000000005
 40
0.0859375000000005
 40
0.0898437500000005
 40
0.0898437500000005
 40
0.0937500000000005
 40
0.0937500000000005
 40
0.1250000000000005
 40
0.1250000000000005
 40
0.1562500000000006
 40
0.1562500000000006
 40
0.1718750000000007
 40
0.1718750000000007
 40
0.1757812500000007
 40
0.1757812500000007
 40
0.1796875000000007
 40
0.1796875000000007
 40
0.1875000000000007
 40
0.1875000000000007
 40
0.2187500000000008
 40
0.2187500000000008
 40
0.2500000000000008
 40
0.2500000000000008
 40
0.2812500000000009
 40
0.2812500000000009
 40
0.2890625000000009
 40
0.2890625000000009
 40
0.2968750000000009
 40
0.2968750000000009
 40
0.3125000000000011
 40
0.3125000000000011
 40
0.3437500000000013
 40
0.3437500000000013
 40
0.3750000000000015
 40
0.3750000000000015
 40
0.4062500000000018
 40
0.4062500000000018
 40
0.4218750000000018
 40
0.4218750000000018
 40
0.4375000000000017
 40
0.4375000000000017
 40
0.5000000000000014
 40
0.5000000000000014
 40
0.562500000000001
 40
0.562500000000001
 40
0.6250000000000008
 40
0.6250000000000008
 40
0.6875000000000005
 40
0.6875000000000005
 40
0.7031250000000005
 40
0.7031250000000005
 40
0.7187500000000005
 40
0.7187500000000005
 40
0.7500000000000002
 40
0.7500000000000002
 40
0.8125000000000001
 40
0.8125000000000001
 40
0.8750000000000001
 40
0.8750000000000001
 40
0.9375000000000001
 40
0.9375000000000001
 40
1.0
 40
1.0
 40
1.0
 40
1.0
 10
3827.223882055103
 20
3629.530857416669
 30
0.0
 10
3838.124398357859
 20
3629.531876526811
 30
0.0
 10
3848.954128874871
 20
3629.532615509042
 30
0.0
 10
3870.458394506274
 20
3629.53019866996
 30
0.0
 10
3881.133066631734
 20
3629.527192898095
 30
0.0
 10
3897.017824258125
 20
3629.521816616184
 30
0.0
 10
3902.291479208383
 20
3629.519894661551
 30
0.0
 10
3910.168701374588
 20
3629.516699021677
 30
0.0
 10
3912.78889381263
 20
3629.515581046172
 30
0.0
 10
3916.710642093956
 20
3629.513804367934
 30
0.0
 10
3918.016135036959
 20
3629.513195594348
 30
0.0
 10
3920.615899565314
 20
3629.511945001907
 30
0.0
 10
3921.911200858176
 20
3629.511302196815
 30
0.0
 10
3933.527667125395
 20
3629.505358116503
 30
0.0
 10
3943.561536999418
 20
3629.4991795531
 30
0.0
 10
3963.057102607137
 20
3629.485686100962
 30
0.0
 10
3972.518800343031
 20
3629.47855106927
 30
0.0
 10
3986.290827382589
 20
3629.467097280463
 30
0.0
 10
3990.811212198935
 20
3629.463150412813
 30
0.0
 10
3996.375274742907
 20
3629.458053227374
 30
0.0
 10
3997.483762012782
 20
3629.457026521865
 30
0.0
 10
3999.692105730936
 20
3629.454960990206
 30
0.0
 10
4000.792432189215
 20
3629.453921703223
 30
0.0
 10
4004.07037086433
 20
3629.450799373696
 30
0.0
 10
4006.228125124998
 20
3629.448708537302
 30
0.0
 10
4016.883189113548
 20
3629.438272726792
 30
0.0
 10
4024.981159376364
 20
3629.430064685799
 30
0.0
 10
4040.423644524149
 20
3629.413862857998
 30
0.0
 10
4047.76780192181
 20
3629.405741926871
 30
0.0
 10
4061.783775820084
 20
3629.389829148113
 30
0.0
 10
4068.454944226188
 20
3629.382194291172
 30
0.0
 10
4076.413814978837
 20
3629.372920625736
 30
0.0
 10
4077.987802295871
 20
3629.371073828835
 30
0.0
 10
4081.092378081102
 20
3629.367413312849
 30
0.0
 10
4082.622056761188
 20
3629.365600714456
 30
0.0
 10
4087.145964378062
 20
3629.360237193031
 30
0.0
 10
4090.075112555367
 20
3629.356757270626
 30
0.0
 10
4098.622018291471
 20
3629.346906057325
 30
0.0
 10
4103.999252253408
 20
3629.341128419031
 30
0.0
 10
4114.192211162952
 20
3629.328978352623
 30
0.0
 10
4119.00782103086
 20
3629.322610223327
 30
0.0
 10
4128.149729424091
 20
3629.311465074184
 30
0.0
 10
4132.475552857775
 20
3629.306697639957
 30
0.0
 10
4138.633539199036
 20
3629.299630577923
 30
0.0
 10
4140.632746994732
 20
3629.297293176688
 30
0.0
 10
4144.515238564362
 20
3629.29271828311
 30
0.0
 10
4146.39930540816
 20
3629.290476537232
 30
0.0
 10
4155.554164436703
 20
3629.279700861403
 30
0.0
 10
4162.029078130276
 20
3629.272808320762
 30
0.0
 10
4173.654548543698
 20
3629.260426379296
 30
0.0
 10
4178.802962118597
 20
3629.255080074637
 30
0.0
 10
4188.024829849024
 20
3629.245572475669
 30
0.0
 10
4192.096967083468
 20
3629.241756524841
 30
0.0
 10
4199.339920344033
 20
3629.234951234709
 30
0.0
 10
4202.510201209712
 20
3629.232112266042
 30
0.0
 10
4205.989819264018
 20
3629.229522311142
 30
0.0
 10
4206.661705710533
 20
3629.229061207721
 30
0.0
 10
4207.95790239169
 20
3629.228230641582
 30
0.0
 10
4208.582124601204
 20
3629.227861200045
 30
0.0
 10
4210.385787880515
 20
3629.226859945099
 30
0.0
 10
4211.496239833984
 20
3629.22633193958
 30
0.0
 10
4214.572152291699
 20
3629.224997010196
 30
0.0
 10
4216.282124150271
 20
3629.224479384794
 30
0.0
 10
4219.103959563827
 20
3629.22419813237
 30
0.0
 10
4220.213364876882
 20
3629.226102098118
 30
0.0
 10
4221.917152736369
 20
3629.232020073526
 30
0.0
 10
4222.512357744172
 20
3629.235425026544
 30
0.0
 10
4223.277710323552
 20
3629.239918923742
 30
0.0
 10
4223.447797787278
 20
3629.240922963667
 30
0.0
 10
4223.447388830614
 20
3629.241210617768
 30
0.0
  0
SPLINE
  5
131
330
1F
100
AcDbEntity
  8
bath
  6
Continuous
370
     0
100
AcDbSpline
210
0.0
220
0.0
230
1.0
 70
     8
 71
     3
 72
    12
 73
     8
 74
     0
 42
0.000000001
 43
0.0000000001
 40
0.0
 40
0.0
 40
0.0
 40
0.0
 40
0.5000000000000194
 40
0.5000000000000194
 40
0.7500000000000097
 40
0.7500000000000097
 40
1.0
 40
1.0
 40
1.0
 40
1.0
 10
3827.223882055103
 20
3640.384220944151
 30
0.0
 10
3827.22388204445
 20
3640.615438202185
 30
0.0
 10
3827.223882033294
 20
3640.799248393844
 30
0.0
 10
3827.223881971867
 20
3641.006537708112
 30
0.0
 10
3827.223881951594
 20
3641.064122803345
 30
0.0
 10
3827.223881791363
 20
3641.155399407671
 30
0.0
 10
3827.223880009408
 20
3641.188643977561
 30
0.0
 10
3827.223882104109
 20
3641.209000273061
 30
0.0
  0
SPLINE
  5
133
330
1F
100
AcDbEntity
  8
bath
  6
Continuous
370
     0
100
AcDbSpline
210
0.0
220
0.0
230
1.0
 70
     8
 71
     3
 72
     9
 73
     5
 74
     0
 42
0.000000001
 43
0.0000000001
 40
0.0
 40
0.0
 40
0.0
 40
0.0
 40
0.7503740551245004
 40
1.0
 40
1.0
 40
1.0
 40
1.0
 10
3827.223882603099
 20
3641.229545770062
 30
0.0
 10
3827.223883395307
 20
3641.228887349696
 30
0.0
 10
3827.223884451058
 20
3641.228009893497
 30
0.0
 10
3827.223882572921
 20
3641.212797644966
 30
0.0
 10
3827.223882104088
 20
3641.209000273053
 30
0.0
  0
SPLINE
  5
13F
330
1F
100
AcDbEntity
  8
bath
  6
Continuous
370
    15
100
AcDbSpline
210
0.0
220
0.0
230
1.0
 70
     8
 71
     3
 72
    74
 73
    70
 74
     0
 42
0.000000001
 43
0.0000000001
 40
0.0
 40
0.0
 40
0.0
 40
0.0
 40
0.011595634719795
 40
0.0447574834549024
 40
0.0744504377209344
 40
0.1023153461503546
 40
0.1318346083824887
 40
0.1601679030007807
 40
0.187458931231691
 40
0.2138529763611103
 40
0.2394653268284467
 40
0.2643891690442478
 40
0.2888101509890982
 40
0.312621537661047
 40
0.335550490927748
 40
0.3577029819335595
 40
0.3791679096340418
 40
0.4000180775763175
 40
0.420314350819128
 40
0.4401085487603801
 40
0.4594469921023077
 40
0.4782260581895576
 40
0.4962727659035144
 40
0.5137040571265511
 40
0.5306103297175396
 40
0.5470648482223867
 40
0.5631099381519272
 40
0.5786136929936036
 40
0.5936340847809398
 40
0.6082033449620755
 40
0.6223500613052988
 40
0.6361002427419313
 40
0.6494917410298017
 40
0.662505649181652
 40
0.6751587582888403
 40
0.6874727027312531
 40
0.6994652219226336
 40
0.7111536887108448
 40
0.7225552093601287
 40
0.7336866703324965
 40
0.7445647715712671
 40
0.755206050795625
 40
0.7656269016671019
 40
0.7758435877988973
 40
0.7858722539803983
 40
0.7957289355803088
 40
0.8054295668073102
 40
0.8149899883073615
 40
0.8244259544337664
 40
0.8337524924361231
 40
0.8429046666235215
 40
0.8519380729684506
 40
0.8609686296675088
 40
0.869996865596345
 40
0.8790233253123391
 40
0.8880485407598577
 40
0.8970730592921077
 40
0.9060974716358021
 40
0.9151224394259982
 40
0.9241487219288934
 40
0.9331678898742818
 40
0.9422196878626623
 40
0.9514423600153005
 40
0.9607709643624859
 40
0.9702266716387743
 40
0.9798353542196768
 40
0.9891587408991481
 40
0.9989814447998179
 40
1.0
 40
1.0
 40
1.0
 40
1.0
 10
1987.793045897414
 20
4937.531687609596
 30
0.0
 10
1983.783830654639
 20
4937.527971635319
 30
0.0
 10
1968.308836035387
 20
4937.51362850868
 30
0.0
 10
1942.568126578987
 20
4937.252459301243
 30
0.0
 10
1911.205469693654
 20
4936.740162631397
 30
0.0
 10
1881.108059095309
 20
4935.9522540853
 30
0.0
 10
1851.490002975907
 20
4934.874245682369
 30
0.0
 10
1822.084131120138
 20
4933.471450263295
 30
0.0
 10
1793.775212373627
 20
4931.790724970462
 30
0.0
 10
1766.426857667247
 20
4929.837648751303
 30
0.0
 10
1739.920149258531
 20
4927.61694641211
 30
0.0
 10
1714.12278062761
 20
4925.125819092746
 30
0.0
 10
1688.97794044548
 20
4922.376577928762
 30
0.0
 10
1664.556311311116
 20
4919.378119992939
 30
0.0
 10
1640.955647726611
 20
4916.147891917816
 30
0.0
 10
1618.205642255961
 20
4912.702496699927
 30
0.0
 10
1596.217662614964
 20
4909.041373861988
 30
0.0
 10
1574.918792874098
 20
4905.164032246258
 30
0.0
 10
1554.248994426022
 20
4901.07034424254
 30
0.0
 10
1534.157652667484
 20
4896.759543167007
 30
0.0
 10
1514.649294057159
 20
4892.244368275274
 30
0.0
 10
1495.806198535292
 20
4887.546334822195
 30
0.0
 10
1477.685984116508
 20
4882.686672680026
 30
0.0
 10
1460.279445838974
 20
4877.677161634323
 30
0.0
 10
1443.495752157969
 20
4872.504985004916
 30
0.0
 10
1427.269179071812
 20
4867.162923186036
 30
0.0
 10
1411.608597366
 20
4861.662527626826
 30
0.0
 10
1396.528357976649
 20
4856.016232924756
 30
0.0
 10
1382.044241721619
 20
4850.242814905583
 30
0.0
 10
1368.120411634632
 20
4844.340434838795
 30
0.0
 10
1354.731650309785
 20
4838.31031136313
 30
0.0
 10
1341.851364623365
 20
4832.151826463216
 30
0.0
 10
1329.468194084372
 20
4825.870343117411
 30
0.0
 10
1317.575470454373
 20
4819.46922125286
 30
0.0
 10
1306.16939295632
 20
4812.958592712699
 30
0.0
 10
1295.235445386079
 20
4806.34155686377
 30
0.0
 10
1284.75915593839
 20
4799.620652221139
 30
0.0
 10
1274.727689423966
 20
4792.798635759034
 30
0.0
 10
1265.128726659962
 20
4785.877929122598
 30
0.0
 10
1255.950432543996
 20
4778.860583484742
 30
0.0
 10
1247.181440037702
 20
4771.748273087566
 30
0.0
 10
1238.810846694797
 20
4764.542286954813
 30
0.0
 10
1230.828218152286
 20
4757.243523926805
 30
0.0
 10
1223.223595209217
 20
4749.852490357246
 30
0.0
 10
1215.987509847173
 20
4742.369296008618
 30
0.0
 10
1209.110983371771
 20
4734.79366472871
 30
0.0
 10
1202.585599414485
 20
4727.124898642371
 30
0.0
 10
1196.403310228104
 20
4719.362018728324
 30
0.0
 10
1190.557353956817
 20
4711.503447781817
 30
0.0
 10
1185.055176671382
 20
4703.57157753061
 30
0.0
 10
1179.90284491647
 20
4695.573171696376
 30
0.0
 10
1175.077026488505
 20
4687.492693387354
 30
0.0
 10
1170.54658994523
 20
4679.291900935488
 30
0.0
 10
1166.296122493891
 20
4670.945259834076
 30
0.0
 10
1162.330256623874
 20
4662.461731839555
 30
0.0
 10
1158.653377670637
 20
4653.850409143109
 30
0.0
 10
1155.269573274709
 20
4645.120520675167
 30
0.0
 10
1152.182609201161
 20
4636.281390136868
 30
0.0
 10
1149.395997989414
 20
4627.342394211284
 30
0.0
 10
1146.913539212623
 20
4618.316049255507
 30
0.0
 10
1144.736027858001
 20
4609.201890921941
 30
0.0
 10
1142.840498310102
 20
4599.955714947062
 30
0.0
 10
1141.225773347144
 20
4590.547797197687
 30
0.0
 10
1139.89218564423
 20
4580.954873278676
 30
0.0
 10
1138.848086399588
 20
4571.192175839363
 30
0.0
 10
1138.099513255598
 20
4561.403525118714
 30
0.0
 10
1137.691499195882
 20
4551.468795748035
 30
0.0
 10
1137.535278398089
 20
4544.497664164732
 30
0.0
 10
1137.526322603884
 20
4540.749267366598
 30
0.0
 10
1137.525481191399
 20
4540.397098950035
 30
0.0
  0
SPLINE
  5
140
330
1F
100
AcDbEntity
  8
bath
  6
Continuous
370
    15
100
AcDbSpline
210
0.0
220
0.0
230
1.0
 70
     8
 71
     3
 72
    74
 73
    70
 74
     0
 42
0.000000001
 43
0.0000000001
 40
0.0
 40
0.0
 40
0.0
 40
0.0
 40
0.0115956177577587
 40
0.0447574670619017
 40
0.0744504218374453
 40
0.1023153307450153
 40
0.131834593483664
 40
0.1601678885881392
 40
0.1874589172873526
 40
0.2138529628696698
 40
0.2394653137764786
 40
0.264389156419955
 40
0.2888101387838354
 40
0.3126215258643546
 40
0.3355504795245071
 40
0.3577029709104393
 40
0.3791678989792296
 40
0.4000180672792827
 40
0.4203143408703522
 40
0.4401085391512619
 40
0.4594469828250131
 40
0.4782260492345042
 40
0.4962727572581207
 40
0.5137040487802596
 40
0.5306103216613416
 40
0.5470648404485239
 40
0.5631099306533819
 40
0.5786136857610961
 40
0.5936340778061733
 40
0.6082033382372984
 40
0.6223500548232686
 40
0.6361002364958522
 40
0.6494917350135006
 40
0.6625056433886732
 40
0.6751587527129716
 40
0.6874726973666748
 40
0.699465216763838
 40
0.7111536837526142
 40
0.7225552045975365
 40
0.7336866657609017
 40
0.7445647671863301
 40
0.7552060465932755
 40
0.7656268976435684
 40
0.7758435839506707
 40
0.785872250304252
 40
0.7957289320732929
 40
0.8054295634667454
 40
0.8149899851308502
 40
0.8244259514191611
 40
0.8337524895815539
 40
0.8429046639259931
 40
0.8519380704259329
 40
0.8609686272799457
 40
0.869996863363697
 40
0.8790233232345798
 40
0.8880485388369578
 40
0.8970730575240628
 40
0.9060974700225965
 40
0.9151224379676483
 40
0.9241487206254284
 40
0.9331678887255726
 40
0.942219686869269
 40
0.9514423591801584
 40
0.9607709636874128
 40
0.9702266711259611
 40
0.9798353538717242
 40
0.9891587407111581
 40
0.9989814447803762
 40
1.0
 40
1.0
 40
1.0
 40
1.0
 10
1987.793405114867
 20
4143.262498555601
 30
0.0
 10
1991.802614424179
 20
4143.266214527736
 30
0.0
 10
2007.277603109945
 20
4143.280557661834
 30
0.0
 10
2033.018306632964
 20
4143.541726841245
 30
0.0
 10
2064.38096351834
 20
4144.054023501239
 30
0.0
 10
2094.478374116685
 20
4144.84193204975
 30
0.0
 10
2124.096430236097
 20
4145.919940452017
 30
0.0
 10
2153.502302091874
 20
4147.322735871265
 30
0.0
 10
2181.811220838397
 20
4149.003461164053
 30
0.0
 10
2209.159575544781
 20
4150.956537383223
 30
0.0
 10
2235.666283953497
 20
4153.177239722412
 30
0.0
 10
2261.463652584415
 20
4155.668367041776
 30
0.0
 10
2286.608492766542
 20
4158.41760820576
 30
0.0
 10
2311.030121900905
 20
4161.416066141582
 30
0.0
 10
2334.630785485415
 20
4164.646294216705
 30
0.0
 10
2357.380790956069
 20
4168.091689434592
 30
0.0
 10
2379.36877059707
 20
4171.752812272532
 30
0.0
 10
2400.667640337935
 20
4175.630153888262
 30
0.0
 10
2421.337438786015
 20
4179.723841891979
 30
0.0
 10
2441.428780544554
 20
4184.034642967512
 30
0.0
 10
2460.937139154885
 20
4188.549817859245
 30
0.0
 10
2479.780234676754
 20
4193.247851312324
 30
0.0
 10
2497.900449095541
 20
4198.107513454493
 30
0.0
 10
2515.306987373073
 20
4203.117024500193
 30
0.0
 10
2532.090681054076
 20
4208.289201129601
 30
0.0
 10
2548.31725414023
 20
4213.631262948479
 30
0.0
 10
2563.977835846043
 20
4219.131658507688
 30
0.0
 10
2579.0580752354
 20
4224.77795320976
 30
0.0
 10
2593.542191490433
 20
4230.551371228933
 30
0.0
 10
2607.466021577423
 20
4236.453751295723
 30
0.0
 10
2620.854782902274
 20
4242.483874771387
 30
0.0
 10
2633.735068588697
 20
4248.642359671302
 30
0.0
 10
2646.118239127697
 20
4254.923843017111
 30
0.0
 10
2658.010962757698
 20
4261.324964881662
 30
0.0
 10
2669.417040255754
 20
4267.835593421824
 30
0.0
 10
2680.350987825995
 20
4274.45262927075
 30
0.0
 10
2690.827277273684
 20
4281.173533913383
 30
0.0
 10
2700.858743788111
 20
4287.995550375488
 30
0.0
 10
2710.457706552114
 20
4294.916257011923
 30
0.0
 10
2719.636000668078
 20
4301.933602649778
 30
0.0
 10
2728.404993174369
 20
4309.045913046951
 30
0.0
 10
2736.775586517274
 20
4316.251899179704
 30
0.0
 10
2744.758215059786
 20
4323.55066220771
 30
0.0
 10
2752.362838002855
 20
4330.941695777268
 30
0.0
 10
2759.598923364899
 20
4338.424890125897
 30
0.0
 10
2766.4754498403
 20
4346.000521405803
 30
0.0
 10
2773.000833797587
 20
4353.669287492145
 30
0.0
 10
2779.183122983968
 20
4361.43216740619
 30
0.0
 10
2785.029079255256
 20
4369.2907383527
 30
0.0
 10
2790.531256540691
 20
4377.222608603904
 30
0.0
 10
2795.683588295604
 20
4385.22101443814
 30
0.0
 10
2800.509406723571
 20
4393.301492747164
 30
0.0
 10
2805.039843266847
 20
4401.502285199031
 30
0.0
 10
2809.290310718188
 20
4409.848926300446
 30
0.0
 10
2813.256176588203
 20
4418.332454294965
 30
0.0
 10
2816.933055541442
 20
4426.943776991412
 30
0.0
 10
2820.316859937369
 20
4435.67366545935
 30
0.0
 10
2823.403824010916
 20
4444.512795997645
 30
0.0
 10
2826.190435222663
 20
4453.451791923226
 30
0.0
 10
2828.672893999453
 20
4462.478136879002
 30
0.0
 10
2830.850405354076
 20
4471.592295212566
 30
0.0
 10
2832.745934901975
 20
4480.838471187444
 30
0.0
 10
2834.360659864933
 20
4490.246388936816
 30
0.0
 10
2835.694247567849
 20
4499.839312855828
 30
0.0
 10
2836.738346812491
 20
4509.602010295141
 30
0.0
 10
2837.48691995648
 20
4519.390661015783
 30
0.0
 10
2837.8949340162
 20
4529.325390386452
 30
0.0
 10
2838.051154813997
 20
4536.296521970426
 30
0.0
 10
2838.0601106082
 20
4540.044918769242
 30
0.0
 10
2838.060952020687
 20
4540.397087186483
 30
0.0
  0
SPLINE
  5
141
330
1F
100
AcDbEntity
  8
bath
  6
Continuous
370
    15
100
AcDbSpline
210
0.0
220
0.0
230
1.0
 70
     8
 71
     3
 72
    76
 73
    72
 74
     0
 42
0.000000001
 43
0.0000000001
 40
0.0
 40
0.0
 40
0.0
 40
0.0
 40
0.0065515763082363
 40
0.016108933919772
 40
0.0250043131869115
 40
0.0342333461726548
 40
0.043896134092014
 40
0.0534183574347359
 40
0.062820177553377
 40
0.0721239353682105
 40
0.0813293009790939
 40
0.0903333829789265
 40
0.0993408163625195
 40
0.1083524153294981
 40
0.1173689035312452
 40
0.1263909181627558
 40
0.1354190364435361
 40
0.1444538029413254
 40
0.1534957573808733
 40
0.1625454625524727
 40
0.1715996597526551
 40
0.1806510184884841
 40
0.1898864321473697
 40
0.1992315398304897
 40
0.2087008467726755
 40
0.2183080438085353
 40
0.2280667434149666
 40
0.237990463902373
 40
0.2480926178010755
 40
0.258386497365961
 40
0.2688852568906422
 40
0.2796018914042981
 40
0.2905492112627925
 40
0.3017398120719282
 40
0.3131860392962121
 40
0.3248999468104679
 40
0.3368932485457083
 40
0.3491772622701381
 40
0.3617636430328044
 40
0.3747029680134283
 40
0.3880542127200423
 40
0.4017440544078475
 40
0.4157909744977509
 40
0.4302127438733966
 40
0.4450281517219347
 40
0.4602581961527946
 40
0.4759520291016612
 40
0.4921229743284045
 40
0.5086953129865146
 40
0.5257265869624474
 40
0.5432825278839189
 40
0.5614442395272925
 40
0.5803253744407645
 40
0.5997172022448247
 40
0.6195481168106005
 40
0.6398580888205774
 40
0.6606908187469466
 40
0.6820966446539121
 40
0.7041343389797894
 40
0.7268736216607782
 40
0.7503981594892616
 40
0.7747094824927398
 40
0.7993527614655958
 40
0.8246267842164336
 40
0.8506013991635581
 40
0.8773644022707694
 40
0.9050220813567488
 40
0.9337055541679664
 40
0.9635900423140991
 40
0.9965510531034736
 40
1.0
 40
1.0
 40
1.0
 40
1.0
 10
2838.038704477033
 20
4540.396897004416
 30
0.0
 10
2838.024395203245
 20
4542.662132419042
 30
0.0
 10
2837.989211739748
 20
4548.231864936859
 30
0.0
 10
2837.705540439497
 20
4556.873948948282
 30
0.0
 10
2837.139745251084
 20
4566.42950729073
 30
0.0
 10
2836.261986819667
 20
4575.998503178255
 30
0.0
 10
2835.069808522609
 20
4585.751766264153
 30
0.0
 10
2833.549107483356
 20
4595.519924356419
 30
0.0
 10
2831.730678500226
 20
4605.110675670698
 30
0.0
 10
2829.619080907262
 20
4614.528988702161
 30
0.0
 10
2827.222604196506
 20
4623.736914556332
 30
0.0
 10
2824.541178801686
 20
4632.759000004386
 30
0.0
 10
2821.57860098318
 20
4641.622075967801
 30
0.0
 10
2818.317153365291
 20
4650.3841684855
 30
0.0
 10
2814.760136760047
 20
4659.035942315359
 30
0.0
 10
2810.91100635313
 20
4667.568039328584
 30
0.0
 10
2806.773567627829
 20
4675.971158091473
 30
0.0
 10
2802.351966917951
 20
4684.236116881702
 30
0.0
 10
2797.65047854255
 20
4692.353741977603
 30
0.0
 10
2792.674994645405
 20
4700.314338290866
 30
0.0
 10
2787.431018925765
 20
4708.104531532184
 30
0.0
 10
2781.899505574053
 20
4715.772408050907
 30
0.0
 10
2776.063891641906
 20
4723.338932413187
 30
0.0
 10
2769.899063426313
 20
4730.827828577571
 30
0.0
 10
2763.418121588515
 20
4738.21672884977
 30
0.0
 10
2756.615075840094
 20
4745.506985570741
 30
0.0
 10
2749.483746867043
 20
4752.69939967842
 30
0.0
 10
2742.017625017106
 20
4759.794397093114
 30
0.0
 10
2734.209913096878
 20
4766.792029122661
 30
0.0
 10
2726.053565377903
 20
4773.691969943174
 30
0.0
 10
2717.541330854038
 20
4780.493516660177
 30
0.0
 10
2708.665799396994
 20
4787.195590028625
 30
0.0
 10
2699.419451483358
 20
4793.796735909572
 30
0.0
 10
2689.794712713098
 20
4800.2951289816
 30
0.0
 10
2679.784010565985
 20
4806.688572248023
 30
0.0
 10
2669.37984655627
 20
4812.974517511186
 30
0.0
 10
2658.57483669252
 20
4819.150009835714
 30
0.0
 10
2647.361663841564
 20
4825.212062889882
 30
0.0
 10
2635.720546282089
 20
4831.162930088862
 30
0.0
 10
2623.617653159221
 20
4837.01374993584
 30
0.0
 10
2611.043381552389
 20
4842.758553070965
 30
0.0
 10
2597.998299642265
 20
4848.386603778763
 30
0.0
 10
2584.496985457756
 20
4853.883610257311
 30
0.0
 10
2570.524805550632
 20
4859.248067315022
 30
0.0
 10
2556.066166592465
 20
4864.478573076421
 30
0.0
 10
2541.094953629551
 20
4869.576648707939
 30
0.0
 10
2525.587074067916
 20
4874.544250309001
 30
0.0
 10
2509.548131938163
 20
4879.366500509936
 30
0.0
 10
2492.982233060935
 20
4884.032867862162
 30
0.0
 10
2475.876649464777
 20
4888.540019026896
 30
0.0
 10
2458.166050898246
 20
4892.898044114937
 30
0.0
 10
2439.766116889612
 20
4897.1216330951
 30
0.0
 10
2420.68348021624
 20
4901.198316166891
 30
0.0
 10
2400.975372212283
 20
4905.09875657467
 30
0.0
 10
2380.725992485647
 20
4908.7972631981
 30
0.0
 10
2359.934330127774
 20
4912.287330975322
 30
0.0
 10
2338.557830733033
 20
4915.569828020248
 30
0.0
 10
2316.547305785858
 20
4918.645626799583
 30
0.0
 10
2293.844478971815
 20
4921.516082212483
 30
0.0
 10
2270.379366131585
 20
4924.182142497596
 30
0.0
 10
2246.101743371273
 20
4926.644715847706
 30
0.0
 10
2221.140201117789
 20
4928.870008048822
 30
0.0
 10
2195.550943676053
 20
4930.845358669088
 30
0.0
 10
2169.366860478485
 20
4932.564507879614
 30
0.0
 10
2142.433479350533
 20
4934.032114085042
 30
0.0
 10
2114.662530796563
 20
4935.246317170172
 30
0.0
 10
2085.944483881215
 20
4936.20437562104
 30
0.0
 10
2056.139342034651
 20
4936.904525563375
 30
0.0
 10
2024.495828415814
 20
4937.346629779041
 30
0.0
 10
2001.574620316712
 20
4937.544820229105
 30
0.0
 10
1988.985818347416
 20
4937.551295479277
 30
0.0
 10
1987.79333935973
 20
4937.551908849776
 30
0.0
  0
SPLINE
  5
142
330
1F
100
AcDbEntity
  8
bath
  6
Continuous
370
    15
100
AcDbSpline
210
0.0
220
0.0
230
1.0
 70
     8
 71
     3
 72
    76
 73
    72
 74
     0
 42
0.000000001
 43
0.0000000001
 40
0.0
 40
0.0
 40
0.0
 40
0.0
 40
0.0065515761831946
 40
0.0161089336092223
 40
0.025004312703701
 40
0.0342333455102964
 40
0.0438961332421291
 40
0.0534183564000357
 40
0.062820176336205
 40
0.0721239339704725
 40
0.0813292994026893
 40
0.0903333812277611
 40
0.0993408144365308
 40
0.108352413228601
 40
0.1173689012553474
 40
0.126390915711756
 40
0.1354190338173113
 40
0.144453800139753
 40
0.1534957544038089
 40
0.1625454593997712
 40
0.1715996564242347
 40
0.1806510149843908
 40
0.1898864284640259
 40
0.1992315359657823
 40
0.2087008427241884
 40
0.2183080395735812
 40
0.2280667389906184
 40
0.2379904592854209
 40
0.2480926129880546
 40
0.2583864923531645
 40
0.2688852516740745
 40
0.2796018859797393
 40
0.2905492056257696
 40
0.3017398062177071
 40
0.3131860332198394
 40
0.3248999405067525
 40
0.3368932420092286
 40
0.3491772554952441
 40
0.36176363601363
 40
0.3747029607431342
 40
0.3880542051906322
 40
0.4017440466127477
 40
0.4157909664300196
 40
0.4302127355257654
 40
0.4450281430867759
 40
0.4602581872220429
 40
0.4759520198663316
 40
0.4921229647792181
 40
0.5086953031156972
 40
0.5257265767610776
 40
0.5432825173418338
 40
0.5614442286327371
 40
0.580325363179759
 40
0.5997171906074586
 40
0.6195481047883558
 40
0.6398580764041569
 40
0.6606908059261968
 40
0.6820966314177185
 40
0.7041343253159015
 40
0.7268736075555675
 40
0.7503981449274879
 40
0.7747094674591378
 40
0.7993527459537143
 40
0.8246267682140267
 40
0.8506013826570333
 40
0.8773643852448213
 40
0.9050220637940286
 40
0.933705536048566
 40
0.9635900236146925
 40
0.9965510337644001
 40
1.0
 40
1.0
 40
1.0
 40
1.0
 10
1137.54772873503
 20
4540.397289132108
 30
0.0
 10
1137.562038008821
 20
4538.13205371675
 30
0.0
 10
1137.597221472321
 20
4532.562321198208
 30
0.0
 10
1137.880892772592
 20
4523.920237186064
 30
0.0
 10
1138.44668796101
 20
4514.364678843636
 30
0.0
 10
1139.324446392431
 20
4504.79568295612
 30
0.0
 10
1140.516624689493
 20
4495.042419870229
 30
0.0
 10
1142.037325728752
 20
4485.274261777959
 30
0.0
 10
1143.855754711886
 20
4475.683510463678
 30
0.0
 10
1145.967352304855
 20
4466.265197432215
 30
0.0
 10
1148.363829015616
 20
4457.057271578046
 30
0.0
 10
1151.04525441044
 20
4448.035186129999
 30
0.0
 10
1154.007832228948
 20
4439.172110166591
 30
0.0
 10
1157.269279846841
 20
4430.410017648898
 30
0.0
 10
1160.826296452087
 20
4421.758243819043
 30
0.0
 10
1164.675426859008
 20
4413.226146805823
 30
0.0
 10
1168.812865584313
 20
4404.823028042934
 30
0.0
 10
1173.234466294196
 20
4396.558069252708
 30
0.0
 10
1177.9359546696
 20
4388.440444156809
 30
0.0
 10
1182.911438566752
 20
4380.479847843544
 30
0.0
 10
1188.155414286398
 20
4372.689654602225
 30
0.0
 10
1193.686927638115
 20
4365.021778083503
 30
0.0
 10
1199.522541570265
 20
4357.455253721225
 30
0.0
 10
1205.687369785865
 20
4349.96635755684
 30
0.0
 10
1212.168311623669
 20
4342.577457284642
 30
0.0
 10
1218.971357372095
 20
4335.287200563672
 30
0.0
 10
1226.102686345149
 20
4328.094786455995
 30
0.0
 10
1233.568808195091
 20
4320.999789041304
 30
0.0
 10
1241.376520115324
 20
4314.002157011758
 30
0.0
 10
1249.532867834305
 20
4307.102216191248
 30
0.0
 10
1258.045102358174
 20
4300.300669474244
 30
0.0
 10
1266.920633815223
 20
4293.598596105801
 30
0.0
 10
1276.166981728861
 20
4286.997450224856
 30
0.0
 10
1285.791720499125
 20
4280.499057152831
 30
0.0
 10
1295.802422646241
 20
4274.105613886413
 30
0.0
 10
1306.206586655964
 20
4267.819668623252
 30
0.0
 10
1317.01159651972
 20
4261.644176298724
 30
0.0
 10
1328.224769370682
 20
4255.582123244559
 30
0.0
 10
1339.865886930163
 20
4249.631256045581
 30
0.0
 10
1351.968780053041
 20
4243.780436198604
 30
0.0
 10
1364.543051659886
 20
4238.035633063477
 30
0.0
 10
1377.588133570017
 20
4232.407582355682
 30
0.0
 10
1391.089447754531
 20
4226.910575877137
 30
0.0
 10
1405.061627661663
 20
4221.546118819427
 30
0.0
 10
1419.520266619837
 20
4216.315613058029
 30
0.0
 10
1434.491479582764
 20
4211.217537426511
 30
0.0
 10
1449.999359144404
 20
4206.249935825455
 30
0.0
 10
1466.038301274167
 20
4201.427685624518
 30
0.0
 10
1482.604200151398
 20
4196.761318272297
 30
0.0
 10
1499.709783747567
 20
4192.254167107566
 30
0.0
 10
1517.420382314112
 20
4187.896142019524
 30
0.0
 10
1535.820316322761
 20
4183.672553039364
 30
0.0
 10
1554.902952996146
 20
4179.595869967575
 30
0.0
 10
1574.611061000108
 20
4175.695429559799
 30
0.0
 10
1594.860440726753
 20
4171.996922936371
 30
0.0
 10
1615.652103084635
 20
4168.506855159153
 30
0.0
 10
1637.028602479384
 20
4165.224358114232
 30
0.0
 10
1659.039127426572
 20
4162.148559334899
 30
0.0
 10
1681.741954240633
 20
4159.278103922002
 30
0.0
 10
1705.207067080879
 20
4156.612043636893
 30
0.0
 10
1729.484689841205
 20
4154.149470286784
 30
0.0
 10
1754.446232094703
 20
4151.924178085673
 30
0.0
 10
1780.035489536451
 20
4149.948827465406
 30
0.0
 10
1806.219572734027
 20
4148.229678254899
 30
0.0
 10
1833.152953861987
 20
4146.762072049415
 30
0.0
 10
1860.923902415969
 20
4145.547868964533
 30
0.0
 10
1889.641949331333
 20
4144.589810512708
 30
0.0
 10
1919.447091177919
 20
4143.889660574171
 30
0.0
 10
1951.090604796769
 20
4143.447556343157
 30
0.0
 10
1974.011819605541
 20
4143.249365879049
 30
0.0
 10
1986.600628284534
 20
4143.242890641642
 30
0.0
 10
1987.793113981882
 20
4143.242277269227
 30
0.0
  0
CIRCLE
  5
145
330
1F
100
AcDbEntity
  8
bath
  6
Continuous
370
    15
100
AcDbCircle
 10
1987.79321660604
 20
4540.397093067264
 30
0.0
 40
25.5
  0
SPLINE
  5
149
330
1F
100
AcDbEntity
  8
bath
  6
Continuous
370
     0
100
AcDbSpline
210
0.0
220
0.0
230
1.0
 70
     8
 71
     3
 72
    79
 73
    75
 74
     0
 42
0.000000001
 43
0.0000000001
 40
0.0
 40
0.0
 40
0.0
 40
0.0
 40
0.0625000000000001
 40
0.0625000000000001
 40
0.1250000000000001
 40
0.1250000000000001
 40
0.1875000000000002
 40
0.1875000000000002
 40
0.2500000000000003
 40
0.2500000000000003
 40
0.3125000000000003
 40
0.3125000000000003
 40
0.3437500000000002
 40
0.3437500000000002
 40
0.3750000000000002
 40
0.3750000000000002
 40
0.4375000000000004
 40
0.4375000000000004
 40
0.5000000000000005
 40
0.5000000000000005
 40
0.5312500000000005
 40
0.5312500000000005
 40
0.5625000000000005
 40
0.5625000000000005
 40
0.5937500000000006
 40
0.5937500000000006
 40
0.6093750000000006
 40
0.6093750000000006
 40
0.6250000000000006
 40
0.6250000000000006
 40
0.6562500000000008
 40
0.6562500000000008
 40
0.6875000000000011
 40
0.6875000000000011
 40
0.7187500000000014
 40
0.7187500000000014
 40
0.7265625000000013
 40
0.7265625000000013
 40
0.7343750000000011
 40
0.7343750000000011
 40
0.7500000000000009
 40
0.7500000000000009
 40
0.7812500000000009
 40
0.7812500000000009
 40
0.812500000000001
 40
0.812500000000001
 40
0.843750000000001
 40
0.843750000000001
 40
0.8515625000000008
 40
0.8515625000000008
 40
0.8593750000000007
 40
0.8593750000000007
 40
0.8750000000000005
 40
0.8750000000000005
 40
0.9062500000000005
 40
0.9062500000000005
 40
0.9218750000000005
 40
0.9218750000000005
 40
0.9296875000000005
 40
0.9296875000000005
 40
0.9375000000000005
 40
0.9375000000000005
 40
0.9687500000000003
 40
0.9687500000000003
 40
0.9843750000000001
 40
0.9843750000000001
 40
0.9921875
 40
0.9921875
 40
0.99609375
 40
0.998046875
 40
0.9990234375
 40
0.99951171875
 40
0.99951171875
 40
1.0
 40
1.0
 40
1.0
 40
1.0
 10
1987.79321660604
 20
4915.111153682409
 30
0.0
 10
1967.024482549483
 20
4915.111152947566
 30
0.0
 10
1946.257626401949
 20
4914.918117605139
 30
0.0
 10
1904.728138764565
 20
4914.097757453146
 30
0.0
 10
1883.978340047457
 20
4913.470705083931
 30
0.0
 10
1842.512935469513
 20
4911.729478153629
 30
0.0
 10
1821.797226238219
 20
4910.615400646339
 30
0.0
 10
1780.404111266076
 20
4907.838377569221
 30
0.0
 10
1759.72667621287
 20
4906.175845619375
 30
0.0
 10
1718.415405471463
 20
4902.2259885003
 30
0.0
 10
1697.781549452169
 20
4899.938959663026
 30
0.0
 10
1666.868738733288
 20
4895.964251644032
 30
0.0
 10
1656.582982729203
 20
4894.549991326327
 30
0.0
 10
1636.0605989169
 20
4891.530127542006
 30
0.0
 10
1625.822544477095
 20
4889.924350327092
 30
0.0
 10
1595.183482801213
 20
4884.795935037613
 30
0.0
 10
1574.857161252199
 20
4880.963945907467
 30
0.0
 10
1534.442585467822
 20
4872.313810637485
 30
0.0
 10
1514.354113920463
 20
4867.49655725918
 30
0.0
 10
1484.439995638704
 20
4859.365292280187
 30
0.0
 10
1474.505170181226
 20
4856.503504379121
 30
0.0
 10
1454.717629392434
 20
4850.43981821712
 30
0.0
 10
1444.864905694635
 20
4847.23795031315
 30
0.0
 10
1425.252426767581
 20
4840.449151511062
 30
0.0
 10
1415.492607799779
 20
4836.86249653385
 30
0.0
 10
1400.932877315091
 20
4831.151155142193
 30
0.0
 10
1396.089822567177
 20
4829.190612229373
 30
0.0
 10
1386.467849490413
 20
4825.165566468244
 30
0.0
 10
1381.685267413336
 20
4823.099708851294
 30
0.0
 10
1367.427880535519
 20
4816.732479934774
 30
0.0
 10
1358.043128566791
 20
4812.262039051437
 30
0.0
 10
1339.546961734005
 20
4802.807907525929
 30
0.0
 10
1330.435473403173
 20
4797.824352952726
 30
0.0
 10
1312.526916635346
 20
4787.266841912432
 30
0.0
 10
1303.729617257811
 20
4781.693329870194
 30
0.0
 10
1292.962752548656
 20
4774.294983529686
 30
0.0
 10
1290.818803707208
 20
4772.79215221429
 30
0.0
 10
1286.5673891085
 20
4769.750329858271
 30
0.0
 10
1284.459997832904
 20
4768.211468159224
 30
0.0
 10
1278.194171387577
 20
4763.539659068696
 30
0.0
 10
1274.092061208434
 20
4760.351509590527
 30
0.0
 10
1262.023012706721
 20
4750.55450284515
 30
0.0
 10
1254.29283022153
 20
4743.713606698537
 30
0.0
 10
1239.538332842653
 20
4729.339938109593
 30
0.0
 10
1232.513921867752
 20
4721.807257035584
 30
0.0
 10
1219.261335428692
 20
4705.9613852245
 30
0.0
 10
1213.033064710482
 20
4697.648281633188
 30
0.0
 10
1205.815860995967
 20
4686.699948148432
 30
0.0
 10
1204.398392337767
 20
4684.478099842064
 30
0.0
 10
1201.640507930085
 20
4680.006307009606
 30
0.0
 10
1200.298904119475
 20
4677.754886070758
 30
0.0
 10
1196.386058400571
 20
4670.954071196098
 30
0.0
 10
1193.926751849278
 20
4666.358138451452
 30
0.0
 10
1186.997361709277
 20
4652.383842728207
 30
0.0
 10
1182.975935724584
 20
4642.818926927353
 30
0.0
 10
1177.840906420079
 20
4628.098531099294
 30
0.0
 10
1176.279017292189
 20
4623.129446073227
 30
0.0
 10
1174.160470958705
 20
4615.582558303322
 30
0.0
 10
1173.491671838415
 20
4613.051384903798
 30
0.0
 10
1172.22885218893
 20
4607.95794429455
 30
0.0
 10
1171.634051571638
 20
4605.391873373231
 30
0.0
 10
1168.859242272516
 20
4592.5413772031
 30
0.0
 10
1167.272802333613
 20
4582.194900929539
 30
0.0
 10
1165.7502218817
 20
4566.585774802112
 30
0.0
 10
1165.385847444012
 20
4561.367798294603
 30
0.0
 10
1165.043583998379
 20
4553.519520822082
 30
0.0
 10
1164.963557701113
 20
4550.89987496517
 30
0.0
 10
1164.893391636555
 20
4546.965203340064
 30
0.0
 10
1164.870777920202
 20
4544.996566715219
 30
0.0
 10
1164.865959966897
 20
4542.697574332154
 30
0.0
 10
1164.868910824035
 20
4541.547518996217
 30
0.0
 10
1164.871320670904
 20
4541.05451866983
 30
0.0
 10
1164.8731813536
 20
4540.725825275621
 30
0.0
 10
1164.874260429222
 20
4540.559336941275
 30
0.0
 10
1164.875421693783
 20
4540.397093067263
 30
0.0
  0
SPLINE
  5
14E
330
1F
100
AcDbEntity
  8
bath
  6
Continuous
370
     0
100
AcDbSpline
210
0.0
220
0.0
230
1.0
 70
     8
 71
     3
 72
    79
 73
    75
 74
     0
 42
0.000000001
 43
0.0000000001
 40
0.0
 40
0.0
 40
0.0
 40
0.0
 40
0.0625000000000004
 40
0.0625000000000004
 40
0.1250000000000007
 40
0.1250000000000007
 40
0.1875000000000011
 40
0.1875000000000011
 40
0.2500000000000014
 40
0.2500000000000014
 40
0.3125000000000018
 40
0.3125000000000018
 40
0.3437500000000019
 40
0.3437500000000019
 40
0.375000000000002
 40
0.375000000000002
 40
0.4375000000000021
 40
0.4375000000000021
 40
0.5000000000000022
 40
0.5000000000000022
 40
0.531250000000002
 40
0.531250000000002
 40
0.5625000000000018
 40
0.5625000000000018
 40
0.5937500000000017
 40
0.5937500000000017
 40
0.6093750000000017
 40
0.6093750000000017
 40
0.6250000000000016
 40
0.6250000000000016
 40
0.6562500000000016
 40
0.6562500000000016
 40
0.6875000000000016
 40
0.6875000000000016
 40
0.7187500000000015
 40
0.7187500000000015
 40
0.7265625000000016
 40
0.7265625000000016
 40
0.7343750000000016
 40
0.7343750000000016
 40
0.7500000000000015
 40
0.7500000000000015
 40
0.7812500000000014
 40
0.7812500000000014
 40
0.812500000000001
 40
0.812500000000001
 40
0.843750000000001
 40
0.843750000000001
 40
0.8515625000000008
 40
0.8515625000000008
 40
0.8593750000000008
 40
0.8593750000000008
 40
0.8750000000000007
 40
0.8750000000000007
 40
0.9062500000000003
 40
0.9062500000000003
 40
0.9218750000000003
 40
0.9218750000000003
 40
0.9296875000000001
 40
0.9296875000000001
 40
0.9375000000000001
 40
0.9375000000000001
 40
0.96875
 40
0.96875
 40
0.984375
 40
0.984375
 40
0.9921875
 40
0.9921875
 40
0.99609375
 40
0.998046875
 40
0.9990234375
 40
0.99951171875
 40
0.99951171875
 40
1.0
 40
1.0
 40
1.0
 40
1.0
 10
1987.79321660604
 20
4165.683032452119
 30
0.0
 10
2008.561950662599
 20
4165.683033186962
 30
0.0
 10
2029.328806810132
 20
4165.876068529388
 30
0.0
 10
2070.858294447516
 20
4166.696428681382
 30
0.0
 10
2091.608093164623
 20
4167.323481050597
 30
0.0
 10
2133.073497742568
 20
4169.064707980899
 30
0.0
 10
2153.789206973863
 20
4170.178785488189
 30
0.0
 10
2195.182321946005
 20
4172.955808565308
 30
0.0
 10
2215.859756999212
 20
4174.618340515154
 30
0.0
 10
2257.17102774062
 20
4178.568197634227
 30
0.0
 10
2277.804883759913
 20
4180.855226471502
 30
0.0
 10
2308.717694478794
 20
4184.829934490497
 30
0.0
 10
2319.003450482879
 20
4186.244194808201
 30
0.0
 10
2339.525834295182
 20
4189.264058592522
 30
0.0
 10
2349.763888734986
 20
4190.869835807435
 30
0.0
 10
2380.40295041087
 20
4195.998251096915
 30
0.0
 10
2400.729271959882
 20
4199.830240227061
 30
0.0
 10
2441.14384774426
 20
4208.480375497044
 30
0.0
 10
2461.23231929162
 20
4213.297628875348
 30
0.0
 10
2491.146437573378
 20
4221.428893854341
 30
0.0
 10
2501.081263030857
 20
4224.290681755408
 30
0.0
 10
2520.868803819648
 20
4230.354367917409
 30
0.0
 10
2530.721527517447
 20
4233.556235821378
 30
0.0
 10
2550.334006444501
 20
4240.345034623465
 30
0.0
 10
2560.093825412304
 20
4243.931689600678
 30
0.0
 10
2574.653555896993
 20
4249.643030992336
 30
0.0
 10
2579.496610644907
 20
4251.603573905156
 30
0.0
 10
2589.118583721671
 20
4255.628619666285
 30
0.0
 10
2593.901165798747
 20
4257.694477283235
 30
0.0
 10
2608.158552676564
 20
4264.061706199755
 30
0.0
 10
2617.543304645292
 20
4268.532147083093
 30
0.0
 10
2636.039471478078
 20
4277.9862786086
 30
0.0
 10
2645.150959808908
 20
4282.969833181804
 30
0.0
 10
2663.059516576736
 20
4293.527344222096
 30
0.0
 10
2671.856815954272
 20
4299.100856264334
 30
0.0
 10
2682.623680663426
 20
4306.499202604844
 30
0.0
 10
2684.767629504874
 20
4308.002033920239
 30
0.0
 10
2689.019044103582
 20
4311.043856276257
 30
0.0
 10
2691.126435379178
 20
4312.582717975305
 30
0.0
 10
2697.392261824504
 20
4317.254527065832
 30
0.0
 10
2701.494372003648
 20
4320.442676544001
 30
0.0
 10
2713.563420505361
 20
4330.239683289377
 30
0.0
 10
2721.293602990553
 20
4337.080579435992
 30
0.0
 10
2736.04810036943
 20
4351.454248024935
 30
0.0
 10
2743.07251134433
 20
4358.986929098945
 30
0.0
 10
2756.325097783389
 20
4374.832800910027
 30
0.0
 10
2762.553368501599
 20
4383.145904501339
 30
0.0
 10
2769.770572216114
 20
4394.094237986096
 30
0.0
 10
2771.188040874315
 20
4396.316086292464
 30
0.0
 10
2773.945925281997
 20
4400.787879124921
 30
0.0
 10
2775.287529092608
 20
4403.039300063769
 30
0.0
 10
2779.200374811511
 20
4409.84011493843
 30
0.0
 10
2781.659681362802
 20
4414.436047683075
 30
0.0
 10
2788.589071502804
 20
4428.410343406321
 30
0.0
 10
2792.610497487497
 20
4437.975259207174
 30
0.0
 10
2797.745526792001
 20
4452.695655035233
 30
0.0
 10
2799.307415919893
 20
4457.6647400613
 30
0.0
 10
2801.425962253377
 20
4465.211627831205
 30
0.0
 10
2802.094761373666
 20
4467.74280123073
 30
0.0
 10
2803.357581023151
 20
4472.836241839977
 30
0.0
 10
2803.952381640442
 20
4475.402312761296
 30
0.0
 10
2806.727190939565
 20
4488.252808931427
 30
0.0
 10
2808.313630878468
 20
4498.599285204988
 30
0.0
 10
2809.836211330379
 20
4514.208411332417
 30
0.0
 10
2810.20058576807
 20
4519.426387839923
 30
0.0
 10
2810.542849213702
 20
4527.274665312446
 30
0.0
 10
2810.622875510967
 20
4529.894311169356
 30
0.0
 10
2810.693041575526
 20
4533.828982794463
 30
0.0
 10
2810.715655291878
 20
4535.797619419308
 30
0.0
 10
2810.720473245183
 20
4538.096611802373
 30
0.0
 10
2810.717522388046
 20
4539.246667138312
 30
0.0
 10
2810.715112541178
 20
4539.739667464697
 30
0.0
 10
2810.713251858481
 20
4540.068360858906
 30
0.0
 10
2810.712172781837
 20
4540.234849193245
 30
0.0
 10
2810.711011518298
 20
4540.397093067264
 30
0.0
  0
SPLINE
  5
151
330
1F
100
AcDbEntity
  8
bath
  6
Continuous
370
     0
100
AcDbSpline
210
0.0
220
0.0
230
1.0
 70
     8
 71
     3
 72
    77
 73
    73
 74
     0
 42
0.000000001
 43
0.0000000001
 40
0.0
 40
0.0
 40
0.0
 40
0.0
 40
0.0009765625
 40
0.0009765625
 40
0.0019531250000001
 40
0.0039062500000001
 40
0.0078125000000003
 40
0.0156250000000006
 40
0.0156250000000006
 40
0.0312500000000012
 40
0.0312500000000012
 40
0.0625000000000024
 40
0.0625000000000024
 40
0.0703125000000027
 40
0.0703125000000027
 40
0.078125000000003
 40
0.078125000000003
 40
0.0937500000000035
 40
0.0937500000000035
 40
0.1250000000000043
 40
0.1250000000000043
 40
0.1406250000000047
 40
0.1406250000000047
 40
0.1484375000000048
 40
0.1484375000000048
 40
0.1562500000000049
 40
0.1562500000000049
 40
0.1875000000000051
 40
0.1875000000000051
 40
0.2187500000000054
 40
0.2187500000000054
 40
0.2500000000000057
 40
0.2500000000000057
 40
0.2656250000000058
 40
0.2656250000000058
 40
0.2734375000000057
 40
0.2734375000000057
 40
0.2812500000000056
 40
0.2812500000000056
 40
0.3125000000000052
 40
0.3125000000000052
 40
0.3437500000000048
 40
0.3437500000000048
 40
0.3750000000000043
 40
0.3750000000000043
 40
0.3906250000000042
 40
0.3906250000000042
 40
0.4062500000000039
 40
0.4062500000000039
 40
0.4375000000000039
 40
0.4375000000000039
 40
0.4687500000000038
 40
0.4687500000000038
 40
0.5000000000000036
 40
0.5000000000000036
 40
0.5625000000000032
 40
0.5625000000000032
 40
0.6250000000000028
 40
0.6250000000000028
 40
0.6562500000000025
 40
0.6562500000000025
 40
0.6875000000000022
 40
0.6875000000000022
 40
0.7500000000000017
 40
0.7500000000000017
 40
0.8125000000000014
 40
0.8125000000000014
 40
0.8750000000000008
 40
0.8750000000000008
 40
0.9375000000000003
 40
0.9375000000000003
 40
1.0
 40
1.0
 40
1.0
 40
1.0
 10
1164.875421693111
 20
4540.397093067264
 30
0.0
 10
1164.873083201839
 20
4540.070374266741
 30
0.0
 10
1164.871193408471
 20
4539.739654032024
 30
0.0
 10
1164.868489133245
 20
4539.082373602433
 30
0.0
 10
1164.865959538369
 20
4538.096612234062
 30
0.0
 10
1164.870775982419
 20
4535.797620550265
 30
0.0
 10
1164.923535721368
 20
4531.204136116516
 30
0.0
 10
1165.043560763194
 20
4527.274667013176
 30
0.0
 10
1165.385780318484
 20
4519.426387052389
 30
0.0
 10
1165.750108132995
 20
4514.208406714035
 30
0.0
 10
1167.272668955109
 20
4498.599281263692
 30
0.0
 10
1168.859220293894
 20
4488.252817784805
 30
0.0
 10
1171.634060892953
 20
4475.402324224053
 30
0.0
 10
1172.228863048055
 20
4472.83625669433
 30
0.0
 10
1173.491681590498
 20
4467.742820103118
 30
0.0
 10
1174.160478045658
 20
4465.211647674608
 30
0.0
 10
1176.279014570571
 20
4457.664761648882
 30
0.0
 10
1177.840895241329
 20
4452.695676441493
 30
0.0
 10
1182.975919329637
 20
4437.975287213502
 30
0.0
 10
1186.997358088327
 20
4428.410380778895
 30
0.0
 10
1193.926735164846
 20
4414.436082071484
 30
0.0
 10
1196.386034053618
 20
4409.840146381322
 30
0.0
 10
1200.298870672056
 20
4403.039327342892
 30
0.0
 10
1201.640471833467
 20
4400.787905052341
 30
0.0
 10
1204.398352768743
 20
4396.316110047425
 30
0.0
 10
1205.815820667577
 20
4394.09426098638
 30
0.0
 10
1213.033024199398
 20
4383.145928768233
 30
0.0
 10
1219.261306965886
 20
4374.832838804294
 30
0.0
 10
1232.513931443575
 20
4358.987009016332
 30
0.0
 10
1239.538361768071
 20
4351.45434956708
 30
0.0
 10
1254.2928269896
 20
4337.080651257491
 30
0.0
 10
1262.02297216053
 20
4330.239718271585
 30
0.0
 10
1274.092008124403
 20
4320.442701284572
 30
0.0
 10
1278.194118824445
 20
4317.254553286082
 30
0.0
 10
1284.459948035797
 20
4312.582748527335
 30
0.0
 10
1286.567340565596
 20
4311.043888625188
 30
0.0
 10
1290.818757510941
 20
4308.002069709836
 30
0.0
 10
1292.962707592735
 20
4306.499239884904
 30
0.0
 10
1303.729577392209
 20
4299.100898756101
 30
0.0
 10
1312.526875943049
 20
4293.527381454179
 30
0.0
 10
1330.435414169824
 20
4282.969826228814
 30
0.0
 10
1339.546891333189
 20
4277.986245781126
 30
0.0
 10
1358.043069218562
 20
4268.532130411208
 30
0.0
 10
1367.427836374799
 20
4264.061717498935
 30
0.0
 10
1381.685235235413
 20
4257.694509106523
 30
0.0
 10
1386.467820060081
 20
4255.628655866942
 30
0.0
 10
1396.089795205666
 20
4251.603611964507
 30
0.0
 10
1400.932848944418
 20
4249.643065816916
 30
0.0
 10
1415.492575631559
 20
4243.9317054956
 30
0.0
 10
1425.252391295592
 20
4240.34503430341
 30
0.0
 10
1444.864875545392
 20
4233.556256930735
 30
0.0
 10
1454.717603500269
 20
4230.354407116293
 30
0.0
 10
1474.505138580713
 20
4224.290692565073
 30
0.0
 10
1484.439959215062
 20
4221.428881311893
 30
0.0
 10
1514.354099721624
 20
4213.297714230644
 30
0.0
 10
1534.442638805515
 20
4208.480770496954
 30
0.0
 10
1574.857182090396
 20
4199.830482412954
 30
0.0
 10
1595.183459935866
 20
4195.998287839155
 30
0.0
 10
1625.822511788701
 20
4190.869823003449
 30
0.0
 10
1636.06056635498
 20
4189.264045123727
 30
0.0
 10
1656.58295243817
 20
4186.244189591891
 30
0.0
 10
1666.868710471721
 20
4184.829938014284
 30
0.0
 10
1697.78152448933
 20
4180.855240814324
 30
0.0
 10
1718.415381817599
 20
4178.568203956802
 30
0.0
 10
1759.72665560256
 20
4174.618337531764
 30
0.0
 10
1780.404092328442
 20
4172.955803318619
 30
0.0
 10
1821.797210539688
 20
4170.178773598467
 30
0.0
 10
1842.512921327836
 20
4169.064691534118
 30
0.0
 10
1883.978329650113
 20
4167.32346617872
 30
0.0
 10
1904.72813057866
 20
4166.696420419577
 30
0.0
 10
1946.257622354485
 20
4165.876068112662
 30
0.0
 10
1967.024480532639
 20
4165.683033186584
 30
0.0
 10
1987.793216606041
 20
4165.683032452118
 30
0.0
  0
SPLINE
  5
152
330
1F
100
AcDbEntity
  8
bath
  6
Continuous
370
     0
100
AcDbSpline
210
0.0
220
0.0
230
1.0
 70
     8
 71
     3
 72
    77
 73
    73
 74
     0
 42
0.000000001
 43
0.0000000001
 40
0.0
 40
0.0
 40
0.0
 40
0.0
 40
0.0009765625
 40
0.0009765625
 40
0.001953125
 40
0.00390625
 40
0.0078125
 40
0.0156249999999999
 40
0.0156249999999999
 40
0.0312499999999999
 40
0.0312499999999999
 40
0.0624999999999997
 40
0.0624999999999997
 40
0.0703124999999996
 40
0.0703124999999996
 40
0.0781249999999996
 40
0.0781249999999996
 40
0.0937499999999994
 40
0.0937499999999994
 40
0.1249999999999991
 40
0.1249999999999991
 40
0.1406249999999989
 40
0.1406249999999989
 40
0.1484374999999988
 40
0.1484374999999988
 40
0.1562499999999987
 40
0.1562499999999987
 40
0.1874999999999981
 40
0.1874999999999981
 40
0.2187499999999974
 40
0.2187499999999974
 40
0.2499999999999968
 40
0.2499999999999968
 40
0.2656249999999966
 40
0.2656249999999966
 40
0.2734374999999965
 40
0.2734374999999965
 40
0.2812499999999964
 40
0.2812499999999964
 40
0.3124999999999966
 40
0.3124999999999966
 40
0.3437499999999968
 40
0.3437499999999968
 40
0.374999999999997
 40
0.374999999999997
 40
0.3906249999999971
 40
0.3906249999999971
 40
0.4062499999999972
 40
0.4062499999999972
 40
0.4374999999999974
 40
0.4374999999999974
 40
0.4687499999999976
 40
0.4687499999999976
 40
0.4999999999999977
 40
0.4999999999999977
 40
0.5624999999999978
 40
0.5624999999999978
 40
0.6249999999999981
 40
0.6249999999999981
 40
0.6562499999999981
 40
0.6562499999999981
 40
0.6874999999999982
 40
0.6874999999999982
 40
0.7499999999999984
 40
0.7499999999999984
 40
0.8124999999999989
 40
0.8124999999999989
 40
0.8749999999999992
 40
0.8749999999999992
 40
0.9374999999999996
 40
0.9374999999999996
 40
1.0
 40
1.0
 40
1.0
 40
1.0
 10
2810.71101151897
 20
4540.397093067264
 30
0.0
 10
2810.713350010067
 20
4540.723811867788
 30
0.0
 10
2810.71523980361
 20
4541.054532102503
 30
0.0
 10
2810.717944078835
 20
4541.711812532094
 30
0.0
 10
2810.720473673713
 20
4542.697573900464
 30
0.0
 10
2810.715657229663
 20
4544.996565584263
 30
0.0
 10
2810.662897490713
 20
4549.590050018011
 30
0.0
 10
2810.542872448886
 20
4553.519519121352
 30
0.0
 10
2810.200652893596
 20
4561.36779908214
 30
0.0
 10
2809.836325079087
 20
4566.585779420493
 30
0.0
 10
2808.313764256972
 20
4582.194904870835
 30
0.0
 10
2806.727212918187
 20
4592.541368349723
 30
0.0
 10
2803.952372319128
 20
4605.391861910475
 30
0.0
 10
2803.357570164026
 20
4607.957929440198
 30
0.0
 10
2802.094751621582
 20
4613.05136603141
 30
0.0
 10
2801.425955166423
 20
4615.58253845992
 30
0.0
 10
2799.30741864151
 20
4623.129424485646
 30
0.0
 10
2797.745537970753
 20
4628.098509693034
 30
0.0
 10
2792.610513882445
 20
4642.818898921025
 30
0.0
 10
2788.589075123754
 20
4652.383805355633
 30
0.0
 10
2781.659698047235
 20
4666.358104063045
 30
0.0
 10
2779.200399158463
 20
4670.954039753207
 30
0.0
 10
2775.287562540024
 20
4677.754858791637
 30
0.0
 10
2773.945961378613
 20
4680.006281082186
 30
0.0
 10
2771.188080443338
 20
4684.478076087102
 30
0.0
 10
2769.770612544504
 20
4686.69992514815
 30
0.0
 10
2762.553409012683
 20
4697.648257366295
 30
0.0
 10
2756.325126246195
 20
4705.961347330236
 30
0.0
 10
2743.072501768506
 20
4721.807177118196
 30
0.0
 10
2736.04807144401
 20
4729.339836567448
 30
0.0
 10
2721.29360622248
 20
4743.713534877037
 30
0.0
 10
2713.56346105155
 20
4750.554467862944
 30
0.0
 10
2701.494425087677
 20
4760.351484849957
 30
0.0
 10
2697.392314387635
 20
4763.539632848447
 30
0.0
 10
2691.126485176282
 20
4768.211437607194
 30
0.0
 10
2689.019092646482
 20
4769.750297509342
 30
0.0
 10
2684.767675701138
 20
4772.792116424692
 30
0.0
 10
2682.623725619344
 20
4774.294946249625
 30
0.0
 10
2671.85685581987
 20
4781.693287378428
 30
0.0
 10
2663.059557269031
 20
4787.26680468035
 30
0.0
 10
2645.151019042255
 20
4797.824359905713
 30
0.0
 10
2636.03954187889
 20
4802.807940353402
 30
0.0
 10
2617.543363993517
 20
4812.262055723321
 30
0.0
 10
2608.158596837281
 20
4816.732468635594
 30
0.0
 10
2593.901197976666
 20
4823.099677028006
 30
0.0
 10
2589.118613151998
 20
4825.165530267586
 30
0.0
 10
2579.496638006413
 20
4829.190574170022
 30
0.0
 10
2574.653584267662
 20
4831.151120317613
 30
0.0
 10
2560.09385758052
 20
4836.862480638929
 30
0.0
 10
2550.334041916487
 20
4840.449151831118
 30
0.0
 10
2530.721557666688
 20
4847.237929203792
 30
0.0
 10
2520.868829711812
 20
4850.439779018236
 30
0.0
 10
2501.081294631367
 20
4856.503493569455
 30
0.0
 10
2491.146473997017
 20
4859.365304822636
 30
0.0
 10
2461.232333490456
 20
4867.496471903885
 30
0.0
 10
2441.143794406566
 20
4872.313415637575
 30
0.0
 10
2400.729251121684
 20
4880.963703721574
 30
0.0
 10
2380.402973276215
 20
4884.795898295374
 30
0.0
 10
2349.763921423379
 20
4889.924363131078
 30
0.0
 10
2339.5258668571
 20
4891.5301410108
 30
0.0
 10
2319.00348077391
 20
4894.549996542636
 30
0.0
 10
2308.717722740359
 20
4895.964248120244
 30
0.0
 10
2277.80490872275
 20
4899.938945320205
 30
0.0
 10
2257.171051394482
 20
4902.225982177726
 30
0.0
 10
2215.85977760952
 20
4906.175848602763
 30
0.0
 10
2195.182340883638
 20
4907.838382815908
 30
0.0
 10
2153.789222672392
 20
4910.615412536061
 30
0.0
 10
2133.073511884245
 20
4911.729494600409
 30
0.0
 10
2091.608103561967
 20
4913.470719955808
 30
0.0
 10
2070.858302633421
 20
4914.09776571495
 30
0.0
 10
2029.328810857597
 20
4914.918118021867
 30
0.0
 10
2008.561952679442
 20
4915.111152947944
 30
0.0
 10
1987.793216606041
 20
4915.111153682409
 30
0.0
  0
LWPOLYLINE
  5
3B0
330
1F
100
AcDbEntity
  8
bounding box
100
AcDbPolyline
 90
        4
 70
     1
 43
0.0
 10
3430.723882055103
 20
3026.458382546963
 10
3430.723882055103
 20
3640.458382546963
 10
4223.723882055103
 20
3640.458382546963
 10
4223.723882055103
 20
3026.458382546963
  0
LWPOLYLINE
  5
3B1
330
1F
100
AcDbEntity
  8
bounding box
100
AcDbPolyline
 90
        4
 70
     1
 43
0.0
 10
1137.29321660604
 20
3026.458382542098
 10
1137.29321660604
 20
3640.458382542098
 10
2838.293216606041
 20
3640.458382542098
 10
2838.293216606041
 20
3026.458382542098
  0
LWPOLYLINE
  5
3B2
330
1F
100
AcDbEntity
  8
bounding box
100
AcDbPolyline
 90
        4
 70
     1
 43
0.0
 10
1137.293113981882
 20
4143.242277269227
 10
1137.293113981882
 20
4936.242277269227
 10
2838.293113981882
 20
4936.242277269227
 10
2838.293113981882
 20
4143.242277269227
  0
ENDSEC
  0
SECTION
  2
OBJECTS
  0
DICTIONARY
  5
C
330
0
100
AcDbDictionary
281
     1
  3
ACAD_CIP_PREVIOUS_PRODUCT_INFO
350
3DB
  3
ACAD_COLOR
350
3D4
  3
ACAD_DETAILVIEWSTYLE
350
380
  3
ACAD_GROUP
350
D
  3
ACAD_IMAGE_VARS
350
39E
  3
ACAD_LAYOUT
350
1A
  3
ACAD_MATERIAL
350
43
  3
ACAD_MLEADERSTYLE
350
37F
  3
ACAD_MLINESTYLE
350
17
  3
ACAD_PLOTSETTINGS
350
19
  3
ACAD_PLOTSTYLENAME
350
E
  3
ACAD_SCALELIST
350
47
  3
ACAD_SECTIONVIEWSTYLE
350
381
  3
ACAD_TABLESTYLE
350
37E
  3
ACAD_VISUALSTYLE
350
3BB
  3
ACDB_RECOMPOSE_DATA
350
428
  3
AcDbVariableDictionary
350
37C
  3
AcDsDecomposeData
350
42E
  3
APPDATA
350
39C
  0
DICTIONARY
  5
3A0
330
2
100
AcDbDictionary
280
     1
281
     1
  3
ACAD_LAYERSTATES
360
3A1
  3
ACLYDICTIONARY
360
3AE
  0
DICTIONARY
  5
418
330
10
100
AcDbDictionary
280
     1
281
     1
  3
ADSK_XREC_LAYER_RECONCILED
360
419
  0
DICTIONARY
  5
41A
330
71
100
AcDbDictionary
280
     1
281
     1
  3
ADSK_XREC_LAYER_RECONCILED
360
41B
  0
DICTIONARY
  5
41C
330
3A3
100
AcDbDictionary
280
     1
281
     1
  3
ADSK_XREC_LAYER_RECONCILED
360
41D
  0
DICTIONARY
  5
41E
330
3A5
100
AcDbDictionary
280
     1
281
     1
  3
ADSK_XREC_LAYER_RECONCILED
360
41F
  0
XRECORD
  5
3DB
102
{ACAD_REACTORS
330
C
102
}
330
C
100
AcDbXrecord
280
     1
300
ACD
300
2019
300
ACD_F_S
  0
DICTIONARY
  5
3D4
102
{ACAD_REACTORS
330
C
102
}
330
C
100
AcDbDictionary
281
     1
  0
DICTIONARY
  5
380
102
{ACAD_REACTORS
330
C
102
}
330
C
100
AcDbDictionary
281
     1
  3
Metric50
350
3D7
  0
DICTIONARY
  5
D
102
{ACAD_REACTORS
330
C
102
}
330
C
100
AcDbDictionary
281
     1
  0
RASTERVARIABLES
  5
39E
102
{ACAD_REACTORS
330
C
102
}
330
C
100
AcDbRasterVariables
 90
        0
 70
     1
 71
     1
 72
     1
  0
DICTIONARY
  5
1A
102
{ACAD_REACTORS
330
C
102
}
330
C
100
AcDbDictionary
281
     1
  3
Layout1
350
1E
  3
Layout2
350
26
  3
Model
350
22
  0
DICTIONARY
  5
43
102
{ACAD_REACTORS
330
C
102
}
330
C
100
AcDbDictionary
281
     1
  3
ByBlock
350
45
  3
ByLayer
350
44
  3
Global
350
46
  0
DICTIONARY
  5
37F
102
{ACAD_REACTORS
330
C
102
}
330
C
100
AcDbDictionary
281
     1
  3
Standard
350
3D5
  0
DICTIONARY
  5
17
102
{ACAD_REACTORS
330
C
102
}
330
C
100
AcDbDictionary
281
     1
  3
Standard
350
18
  0
DICTIONARY
  5
19
102
{ACAD_REACTORS
330
C
102
}
330
C
100
AcDbDictionary
281
     1
  0
ACDBDICTIONARYWDFLT
  5
E
102
{ACAD_REACTORS
330
C
102
}
330
C
100
AcDbDictionary
281
     1
  3
Normal
350
F
100
AcDbDictionaryWithDefault
340
F
  0
DICTIONARY
  5
47
102
{ACAD_REACTORS
330
C
102
}
330
C
100
AcDbDictionary
281
     1
  3
A0
350
48
  3
A1
350
49
  3
A2
350
4A
  3
A3
350
4B
  3
A4
350
4C
  3
A5
350
4D
  3
A6
350
4E
  3
A7
350
4F
  3
A8
350
50
  3
A9
350
51
  3
B0
350
52
  3
B1
350
53
  3
B2
350
54
  3
B3
350
55
  3
B4
350
56
  3
B5
350
57
  3
B6
350
58
  3
B7
350
59
  3
B8
350
5A
  3
B9
350
5B
  3
C0
350
5C
  3
C1
350
5D
  3
C2
350
5E
  3
C3
350
5F
  3
C4
350
60
  3
C5
350
61
  3
C6
350
62
  3
C7
350
63
  3
C8
350
64
  3
C9
350
65
  3
D0
350
66
  3
D1
350
67
  3
D2
350
68
  0
DICTIONARY
  5
381
102
{ACAD_REACTORS
330
C
102
}
330
C
100
AcDbDictionary
281
     1
  3
Metric50
350
3D6
  0
DICTIONARY
  5
37E
102
{ACAD_REACTORS
330
C
102
}
330
C
100
AcDbDictionary
281
     1
  3
Standard
350
39B
  0
DICTIONARY
  5
3BB
102
{ACAD_REACTORS
330
C
102
}
330
C
100
AcDbDictionary
281
     1
  3
2dWireframe
350
3C1
  3
Basic
350
3C0
  3
Brighten
350
3C7
  3
ColorChange
350
3CB
  3
Conceptual
350
3C4
  3
Dim
350
3C6
  3
EdgeColorOff
350
3D3
  3
Facepattern
350
3CA
  3
Flat
350
3BC
  3
FlatWithEdges
350
3BD
  3
Gouraud
350
3BE
  3
GouraudWithEdges
350
3BF
  3
Hidden
350
3C3
  3
JitterOff
350
3D1
  3
Linepattern
350
3C9
  3
OverhangOff
350
3D2
  3
Realistic
350
3C5
  3
Shaded
350
3D0
  3
Shaded with edges
350
3CF
  3
Shades of Gray
350
3CC
  3
Sketchy
350
3CD
  3
Thicken
350
3C8
  3
Wireframe
350
3C2
  3
X-Ray
350
3CE
  0
XRECORD
  5
428
102
{ACAD_REACTORS
330
C
102
}
330
C
100
AcDbXrecord
280
     1
 90
        1
330
39B
  0
DICTIONARY
  5
37C
102
{ACAD_REACTORS
330
C
102
}
330
C
100
AcDbDictionary
281
     1
  3
CANNOSCALE
350
37D
  3
CMLEADERSTYLE
350
3F0
  3
CTABLESTYLE
350
3B7
  3
CVIEWDETAILSTYLE
350
3F1
  3
CVIEWSECTIONSTYLE
350
3F2
  3
LAYEREVAL
350
3F4
  3
LAYERNOTIFY
350
3F5
  3
LIGHTINGUNITS
350
3F3
  3
MSLTSCALE
350
3B8
  0
DICTIONARY
  5
42E
102
{ACAD_REACTORS
330
C
102
}
330
C
100
AcDbDictionary
281
     1
  3
AcDsRecords
350
430
  3
AcDsSchemas
350
42F
1001
ACAD
1070
     2
  0
DICTIONARY
  5
39C
102
{ACAD_REACTORS
330
C
102
}
330
C
100
AcDbDictionary
281
     1
  0
DICTIONARY
  5
3A1
102
{ACAD_REACTORS
330
3A0
102
}
330
3A0
100
AcDbDictionary
281
     1
  3
ARGON_LAYERP_1
350
3A2
  3
ARGON_LAYERP_2
350
3AA
  3
ARGON_LAYERP_3
350
3AD
  3
ARGON_LAYERP_4
350
3AF
  0
DICTIONARY
  5
3AE
102
{ACAD_REACTORS
330
3A0
102
}
330
3A0
100
AcDbDictionary
281
     1
1001
ACAD
1000
<All
  0
XRECORD
  5
419
102
{ACAD_REACTORS
330
418
102
}
330
418
100
AcDbXrecord
280
     1
290
     1
  0
XRECORD
  5
41B
102
{ACAD_REACTORS
330
41A
102
}
330
41A
100
AcDbXrecord
280
     1
290
     1
  0
XRECORD
  5
41D
102
{ACAD_REACTORS
330
41C
102
}
330
41C
100
AcDbXrecord
280
     1
290
     1
  0
XRECORD
  5
41F
102
{ACAD_REACTORS
330
41E
102
}
330
41E
100
AcDbXrecord
280
     1
290
     1
  0
ACDBDETAILVIEWSTYLE
  5
3D7
102
{ACAD_XDICTIONARY
360
433
102
}
102
{ACAD_REACTORS
330
380
102
}
330
380
100
AcDbModelDocViewStyle
 70
     0
  3
Metric50
290
     0
100
AcDbDetailViewStyle
 70
     0
 71
     0
 90
        3
 71
     1
340
11
 62
   256
 40
5.0
340
0
 62
   256
 40
5.0
300

 40
0.0
280
     1
 71
     2
340
16
 90
       25
 62
   256
 71
     3
340
11
 62
   256
 40
5.0
 90
        0
 40
15.0
 90
        1
300
%<\AcVar ViewDetailId>% (%<\AcVar ViewScale \f "%sn">%)
 71
     4
340
16
 90
       25
 62
   256
340
16
 90
       25
 62
   256
280
     0
  0
LAYOUT
  5
1E
102
{ACAD_REACTORS
330
1A
102
}
330
1A
100
AcDbPlotSettings
  1

  2
none_device
  4

  6

 40
0.0
 41
0.0
 42
0.0
 43
0.0
 44
0.0
 45
0.0
 46
0.0
 47
0.0
 48
0.0
 49
0.0
140
0.0
141
0.0
142
1.0
143
1.0
 70
   688
 72
     1
 73
     0
 74
     5
  7

 75
    16
147
1.0
 76
     0
 77
     2
 78
   300
148
0.0
149
0.0
100
AcDbLayout
  1
Layout1
 70
     1
 71
     1
 10
0.0
 20
0.0
 11
420.0
 21
297.0
 12
0.0
 22
0.0
 32
0.0
 14
1.000000000000000E+20
 24
1.000000000000000E+20
 34
1.000000000000000E+20
 15
-1.000000000000000E+20
 25
-1.000000000000000E+20
 35
-1.000000000000000E+20
146
0.0
 13
0.0
 23
0.0
 33
0.0
 16
1.0
 26
0.0
 36
0.0
 17
0.0
 27
1.0
 37
0.0
 76
     0
330
1B
  0
LAYOUT
  5
26
102
{ACAD_REACTORS
330
1A
102
}
330
1A
100
AcDbPlotSettings
  1

  2
none_device
  4

  6

 40
0.0
 41
0.0
 42
0.0
 43
0.0
 44
0.0
 45
0.0
 46
0.0
 47
0.0
 48
0.0
 49
0.0
140
0.0
141
0.0
142
1.0
143
1.0
 70
   688
 72
     1
 73
     0
 74
     5
  7

 75
    16
147
1.0
 76
     0
 77
     2
 78
   300
148
0.0
149
0.0
100
AcDbLayout
  1
Layout2
 70
     1
 71
     2
 10
0.0
 20
0.0
 11
0.0
 21
0.0
 12
0.0
 22
0.0
 32
0.0
 14
0.0
 24
0.0
 34
0.0
 15
0.0
 25
0.0
 35
0.0
146
0.0
 13
0.0
 23
0.0
 33
0.0
 16
1.0
 26
0.0
 36
0.0
 17
0.0
 27
1.0
 37
0.0
 76
     0
330
23
  0
LAYOUT
  5
22
102
{ACAD_REACTORS
330
1A
102
}
330
1A
100
AcDbPlotSettings
  1

  2
none_device
  4
Letter_(8.50_x_11.00_Inches)
  6

 40
6.349999999999999
 41
6.349999999999999
 42
6.350005079999999
 43
6.350005079999999
 44
215.9
 45
279.4
 46
0.0
 47
0.0
 48
0.0
 49
0.0
140
0.0
141
0.0
142
1.0
143
1.0
 70
  1712
 72
     1
 73
     0
 74
     0
  7

 75
     0
147
1.0
 76
     0
 77
     2
 78
   300
148
0.0
149
0.0
100
AcDbLayout
  1
Model
 70
     1
 71
     0
 10
0.0
 20
0.0
 11
8400.0
 21
5940.0
 12
0.0
 22
0.0
 32
0.0
 14
0.0
 24
0.0
 34
0.0
 15
8400.0
 25
5940.0
 35
0.0
146
0.0
 13
0.0
 23
0.0
 33
0.0
 16
1.0
 26
0.0
 36
0.0
 17
0.0
 27
1.0
 37
0.0
 76
     0
330
1F
331
29
  0
MATERIAL
  5
45
102
{ACAD_REACTORS
330
43
102
}
330
43
100
AcDbMaterial
  1
ByBlock
 73
     1
 78
     1
172
     1
176
     1
270
     1
274
     1
  0
MATERIAL
  5
44
102
{ACAD_REACTORS
330
43
102
}
330
43
100
AcDbMaterial
  1
ByLayer
 73
     1
 78
     1
172
     1
176
     1
270
     1
274
     1
  0
MATERIAL
  5
46
102
{ACAD_REACTORS
330
43
102
}
330
43
100
AcDbMaterial
  1
Global
 73
     1
 78
     1
172
     1
176
     1
270
     1
274
     1
  0
MLEADERSTYLE
  5
3D5
102
{ACAD_REACTORS
330
37F
102
}
330
37F
100
AcDbMLeaderStyle
179
     2
170
     2
171
     1
172
     0
 90
        2
 40
0.0
 41
0.0
173
     1
 91
-1056964608
340
14
 92
       -2
290
     1
 42
2.0
291
     1
 43
0.36
  3
Standard
 44
4.0
300

342
11
174
     1
178
     6
175
     1
176
     0
 93
-1056964608
 45
4.0
292
     0
297
     0
 46
4.0
 94
-1056964608
 47
1.0
 49
1.0
140
1.0
293
     1
141
0.0
294
     1
177
     0
142
1.0
295
     0
296
     0
143
0.125
271
     0
272
     9
273
     9
298
     1
  0
MLINESTYLE
  5
18
102
{ACAD_REACTORS
330
17
102
}
330
17
100
AcDbMlineStyle
  2
STANDARD
 70
     0
  3

 62
   256
 51
90.0
 52
90.0
 71
     2
 49
0.5
 62
   256
  6
BYLAYER
 49
-0.5
 62
   256
  6
BYLAYER
  0
ACDBPLACEHOLDER
  5
F
102
{ACAD_REACTORS
330
E
102
}
330
E
  0
SCALE
  5
48
102
{ACAD_REACTORS
330
47
102
}
330
47
100
AcDbScale
 70
     0
300
1:1
140
1.0
141
1.0
290
     1
  0
SCALE
  5
49
102
{ACAD_REACTORS
330
47
102
}
330
47
100
AcDbScale
 70
     0
300
1:2
140
1.0
141
2.0
290
     0
  0
SCALE
  5
4A
102
{ACAD_REACTORS
330
47
102
}
330
47
100
AcDbScale
 70
     0
300
1:4
140
1.0
141
4.0
290
     0
  0
SCALE
  5
4B
102
{ACAD_REACTORS
330
47
102
}
330
47
100
AcDbScale
 70
     0
300
1:5
140
1.0
141
5.0
290
     0
  0
SCALE
  5
4C
102
{ACAD_REACTORS
330
47
102
}
330
47
100
AcDbScale
 70
     0
300
1:8
140
1.0
141
8.0
290
     0
  0
SCALE
  5
4D
102
{ACAD_REACTORS
330
47
102
}
330
47
100
AcDbScale
 70
     0
300
1:10
140
1.0
141
10.0
290
     0
  0
SCALE
  5
4E
102
{ACAD_REACTORS
330
47
102
}
330
47
100
AcDbScale
 70
     0
300
1:16
140
1.0
141
16.0
290
     0
  0
SCALE
  5
4F
102
{ACAD_REACTORS
330
47
102
}
330
47
100
AcDbScale
 70
     0
300
1:20
140
1.0
141
20.0
290
     0
  0
SCALE
  5
50
102
{ACAD_REACTORS
330
47
102
}
330
47
100
AcDbScale
 70
     0
300
1:30
140
1.0
141
30.0
290
     0
  0
SCALE
  5
51
102
{ACAD_REACTORS
330
47
102
}
330
47
100
AcDbScale
 70
     0
300
1:40
140
1.0
141
40.0
290
     0
  0
SCALE
  5
52
102
{ACAD_REACTORS
330
47
102
}
330
47
100
AcDbScale
 70
     0
300
1:50
140
1.0
141
50.0
290
     0
  0
SCALE
  5
53
102
{ACAD_REACTORS
330
47
102
}
330
47
100
AcDbScale
 70
     0
300
1:100
140
1.0
141
100.0
290
     0
  0
SCALE
  5
54
102
{ACAD_REACTORS
330
47
102
}
330
47
100
AcDbScale
 70
     0
300
2:1
140
2.0
141
1.0
290
     0
  0
SCALE
  5
55
102
{ACAD_REACTORS
330
47
102
}
330
47
100
AcDbScale
 70
     0
300
4:1
140
4.0
141
1.0
290
     0
  0
SCALE
  5
56
102
{ACAD_REACTORS
330
47
102
}
330
47
100
AcDbScale
 70
     0
300
8:1
140
8.0
141
1.0
290
     0
  0
SCALE
  5
57
102
{ACAD_REACTORS
330
47
102
}
330
47
100
AcDbScale
 70
     0
300
10:1
140
10.0
141
1.0
290
     0
  0
SCALE
  5
58
102
{ACAD_REACTORS
330
47
102
}
330
47
100
AcDbScale
 70
     0
300
100:1
140
100.0
141
1.0
290
     0
  0
SCALE
  5
59
102
{ACAD_REACTORS
330
47
102
}
330
47
100
AcDbScale
 70
     0
300
1/128" = 1'-0"
140
0.0078125
141
12.0
290
     0
  0
SCALE
  5
5A
102
{ACAD_REACTORS
330
47
102
}
330
47
100
AcDbScale
 70
     0
300
1/64" = 1'-0"
140
0.015625
141
12.0
290
     0
  0
SCALE
  5
5B
102
{ACAD_REACTORS
330
47
102
}
330
47
100
AcDbScale
 70
     0
300
1/32" = 1'-0"
140
0.03125
141
12.0
290
     0
  0
SCALE
  5
5C
102
{ACAD_REACTORS
330
47
102
}
330
47
100
AcDbScale
 70
     0
300
1/16" = 1'-0"
140
0.0625
141
12.0
290
     0
  0
SCALE
  5
5D
102
{ACAD_REACTORS
330
47
102
}
330
47
100
AcDbScale
 70
     0
300
3/32" = 1'-0"
140
0.09375
141
12.0
290
     0
  0
SCALE
  5
5E
102
{ACAD_REACTORS
330
47
102
}
330
47
100
AcDbScale
 70
     0
300
1/8" = 1'-0"
140
0.125
141
12.0
290
     0
  0
SCALE
  5
5F
102
{ACAD_REACTORS
330
47
102
}
330
47
100
AcDbScale
 70
     0
300
3/16" = 1'-0"
140
0.1875
141
12.0
290
     0
  0
SCALE
  5
60
102
{ACAD_REACTORS
330
47
102
}
330
47
100
AcDbScale
 70
     0
300
1/4" = 1'-0"
140
0.25
141
12.0
290
     0
  0
SCALE
  5
61
102
{ACAD_REACTORS
330
47
102
}
330
47
100
AcDbScale
 70
     0
300
3/8" = 1'-0"
140
0.375
141
12.0
290
     0
  0
SCALE
  5
62
102
{ACAD_REACTORS
330
47
102
}
330
47
100
AcDbScale
 70
     0
300
1/2" = 1'-0"
140
0.5
141
12.0
290
     0
  0
SCALE
  5
63
102
{ACAD_REACTORS
330
47
102
}
330
47
100
AcDbScale
 70
     0
300
3/4" = 1'-0"
140
0.75
141
12.0
290
     0
  0
SCALE
  5
64
102
{ACAD_REACTORS
330
47
102
}
330
47
100
AcDbScale
 70
     0
300
1" = 1'-0"
140
1.0
141
12.0
290
     0
  0
SCALE
  5
65
102
{ACAD_REACTORS
330
47
102
}
330
47
100
AcDbScale
 70
     0
300
1-1/2" = 1'-0"
140
1.5
141
12.0
290
     0
  0
SCALE
  5
66
102
{ACAD_REACTORS
330
47
102
}
330
47
100
AcDbScale
 70
     0
300
3" = 1'-0"
140
3.0
141
12.0
290
     0
  0
SCALE
  5
67
102
{ACAD_REACTORS
330
47
102
}
330
47
100
AcDbScale
 70
     0
300
6" = 1'-0"
140
6.0
141
12.0
290
     0
  0
SCALE
  5
68
102
{ACAD_REACTORS
330
47
102
}
330
47
100
AcDbScale
 70
     0
300
1'-0" = 1'-0"
140
12.0
141
12.0
290
     0
  0
ACDBSECTIONVIEWSTYLE
  5
3D6
102
{ACAD_XDICTIONARY
360
431
102
}
102
{ACAD_REACTORS
330
381
102
}
330
381
100
AcDbModelDocViewStyle
 70
     0
  3
Metric50
290
     0
100
AcDbSectionViewStyle
 70
     0
 71
     0
 90
      102
 71
     1
340
11
 62
   256
 40
5.0
340
0
340
0
 62
   256
 40
5.0
300
I, O, Q, S, X, Z
 40
10.0
 90
        0
 40
2.5
 90
        0
 71
     2
340
16
 90
       25
 62
   256
340
16
 90
       50
 62
   256
 40
5.0
 40
2.5
 40
5.0
 71
     3
340
11
 62
   256
 40
5.0
 90
        0
 40
15.0
 90
        1
300
%<\AcVar ViewSectionStartId>%-%<\AcVar ViewSectionEndId>% (%<\AcVar ViewScale \f "%sn">%)
 71
     4
 62
   256
 62
   257
300
ANSI31
 40
1.0
 90
        0
290
     0
290
     0
 90
        6
 40
0.0
 40
1.570796326794896
 40
0.2617993877991494
 40
1.308996938995747
 40
-0.2617993877991494
 40
1.832595714594046
  0
TABLESTYLE
  5
39B
102
{ACAD_XDICTIONARY
360
3B3
102
}
102
{ACAD_REACTORS
330
37E
102
}
330
37E
100
AcDbTableStyle
280
     0
  3
Standard
 70
     0
 71
     0
 40
1.5
 41
1.5
280
     0
281
     0
  7
Standard
140
4.5
170
     2
 62
     0
 63
     7
283
     0
 90
        4
 91
        0
  1

274
    -2
284
     1
 64
     0
275
    -2
285
     1
 65
     0
276
    -2
286
     1
 66
     0
277
    -2
287
     1
 67
     0
278
    -2
288
     1
 68
     0
279
    -2
289
     1
 69
     0
  7
Standard
140
6.0
170
     5
 62
     0
 63
     7
283
     0
 90
        4
 91
        0
  1

274
    -2
284
     1
 64
     0
275
    -2
285
     1
 65
     0
276
    -2
286
     1
 66
     0
277
    -2
287
     1
 67
     0
278
    -2
288
     1
 68
     0
279
    -2
289
     1
 69
     0
  7
Standard
140
4.5
170
     5
 62
     0
 63
     7
283
     0
 90
        4
 91
        0
  1

274
    -2
284
     1
 64
     0
275
    -2
285
     1
 65
     0
276
    -2
286
     1
 66
     0
277
    -2
287
     1
 67
     0
278
    -2
288
     1
 68
     0
279
    -2
289
     1
 69
     0
  0
VISUALSTYLE
  5
3C1
102
{ACAD_REACTORS
330
3BB
102
}
330
3BB
100
AcDbVisualStyle
  2
2dWireframe
 70
     4
177
     3
291
     0
 70
    58
 90
        0
176
     1
 90
        2
176
     1
 90
        0
176
     1
 90
        0
176
     1
 40
0.6
176
     1
 40
30.0
176
     1
 62
     7
420
 16777215
176
     1
 90
        1
176
     1
 90
        4
176
     1
 62
     7
176
     1
 62
   257
176
     1
 90
        1
176
     1
 90
        1
176
     1
 40
1.0
176
     1
 90
        0
176
     1
 62
   257
176
     1
 40
1.0
176
     1
 90
        1
176
     1
 90
        6
176
     1
 90
        2
176
     1
 62
     7
176
     1
 90
        5
176
     1
 90
        0
176
     1
 90
        0
176
     1
290
     0
176
     1
 90
        1
176
     1
 40
0.0
176
     1
 90
        0
176
     1
290
     1
176
     1
290
     1
176
     1
290
     0
176
     1
290
     0
176
     1
290
     0
176
     1
290
     0
176
     1
290
     0
176
     1
290
     0
176
     1
290
     0
176
     1
 90
       50
176
     1
 40
0.0
176
     1
 40
1.0
176
     1
 90
        0
176
     1
 62
    18
420
        0
176
     1
 90
       50
176
     1
 90
        3
176
     1
 62
     5
420
      255
176
     1
290
     0
176
     1
 90
       50
176
     1
 90
       50
176
     1
 90
       50
176
     1
290
     0
176
     1
 90
       50
176
     1
 62
   256
176
     0
 40
1.0
176
     0
 90
        2
176
     1
  1
strokes_ogs.tif
176
     1
290
     0
176
     1
 40
1.0
176
     1
 40
1.0
176
     1
1001
ACAD
1000
AcDbSavedByObjectVersion
1070
     0
  0
VISUALSTYLE
  5
3C0
102
{ACAD_REACTORS
330
3BB
102
}
330
3BB
100
AcDbVisualStyle
  2
Basic
 70
     7
177
     3
291
     1
 70
    58
 90
        1
176
     1
 90
        0
176
     1
 90
        1
176
     1
 90
        0
176
     1
 40
0.6
176
     1
 40
30.0
176
     1
 62
     7
420
 16777215
176
     1
 90
        0
176
     1
 90
        4
176
     1
 62
     7
176
     1
 62
   257
176
     1
 90
        1
176
     1
 90
        1
176
     1
 40
1.0
176
     1
 90
        8
176
     1
 62
     7
176
     1
 40
1.0
176
     1
 90
        1
176
     1
 90
        6
176
     1
 90
        2
176
     1
 62
     7
176
     1
 90
        5
176
     1
 90
        0
176
     1
 90
        0
176
     1
290
     0
176
     1
 90
        1
176
     1
 40
0.0
176
     1
 90
        0
176
     1
290
     0
176
     1
290
     1
176
     1
290
     1
176
     1
290
     0
176
     1
290
     0
176
     1
290
     0
176
     1
290
     0
176
     1
290
     0
176
     1
290
     0
176
     1
 90
       50
176
     1
 40
0.0
176
     1
 40
1.0
176
     1
 90
        0
176
     1
 62
    18
420
        0
176
     1
 90
       50
176
     1
 90
        3
176
     1
 62
     5
420
      255
176
     1
290
     0
176
     1
 90
       50
176
     1
 90
       50
176
     1
 90
       50
176
     1
290
     0
176
     1
 90
       50
176
     1
 62
   256
176
     0
 40
1.0
176
     0
 90
        2
176
     1
  1
strokes_ogs.tif
176
     1
290
     0
176
     1
 40
1.0
176
     1
 40
1.0
176
     1
1001
ACAD
1000
AcDbSavedByObjectVersion
1070
     0
  0
VISUALSTYLE
  5
3C7
102
{ACAD_REACTORS
330
3BB
102
}
330
3BB
100
AcDbVisualStyle
  2
Brighten
 70
    12
177
     3
291
     1
 70
    58
 90
        2
176
     1
 90
        2
176
     1
 90
        0
176
     1
 90
        0
176
     1
 40
0.6
176
     1
 40
30.0
176
     1
 62
     7
420
 16777215
176
     1
 90
        1
176
     1
 90
        4
176
     1
 62
     7
176
     1
 62
   257
176
     1
 90
        1
176
     1
 90
        1
176
     1
 40
1.0
176
     1
 90
        8
176
     1
 62
     7
176
     1
 40
1.0
176
     1
 90
        1
176
     1
 90
        6
176
     1
 90
        2
176
     1
 62
     7
176
     1
 90
        5
176
     1
 90
        0
176
     1
 90
        0
176
     1
290
     0
176
     1
 90
        1
176
     1
 40
50.0
176
     1
 90
        0
176
     1
290
     0
176
     1
290
     1
176
     1
290
     1
176
     1
290
     0
176
     1
290
     0
176
     1
290
     0
176
     1
290
     0
176
     1
290
     0
176
     1
290
     0
176
     1
 90
       50
176
     1
 40
0.0
176
     1
 40
1.0
176
     1
 90
        0
176
     1
 62
    18
420
        0
176
     1
 90
       50
176
     1
 90
        3
176
     1
 62
     5
420
      255
176
     1
290
     0
176
     1
 90
       50
176
     1
 90
       50
176
     1
 90
       50
176
     1
290
     0
176
     1
 90
       50
176
     1
 62
   256
176
     0
 40
1.0
176
     0
 90
        2
176
     1
  1
strokes_ogs.tif
176
     1
290
     0
176
     1
 40
1.0
176
     1
 40
1.0
176
     1
1001
ACAD
1000
AcDbSavedByObjectVersion
1070
     0
  0
VISUALSTYLE
  5
3CB
102
{ACAD_REACTORS
330
3BB
102
}
330
3BB
100
AcDbVisualStyle
  2
ColorChange
 70
    16
177
     3
291
     1
 70
    58
 90
        2
176
     1
 90
        2
176
     1
 90
        3
176
     1
 90
        0
176
     1
 40
0.6
176
     1
 40
30.0
176
     1
 62
     8
420
  8421504
176
     1
 90
        1
176
     1
 90
        4
176
     1
 62
     7
176
     1
 62
   257
176
     1
 90
        1
176
     1
 90
        1
176
     1
 40
1.0
176
     1
 90
        8
176
     1
 62
     8
420
  8421504
176
     1
 40
1.0
176
     1
 90
        1
176
     1
 90
        6
176
     1
 90
        2
176
     1
 62
     7
176
     1
 90
        5
176
     1
 90
        0
176
     1
 90
        0
176
     1
290
     0
176
     1
 90
        1
176
     1
 40
0.0
176
     1
 90
        0
176
     1
290
     0
176
     1
290
     1
176
     1
290
     1
176
     1
290
     0
176
     1
290
     0
176
     1
290
     0
176
     1
290
     0
176
     1
290
     0
176
     1
290
     0
176
     1
 90
       50
176
     1
 40
0.0
176
     1
 40
1.0
176
     1
 90
        0
176
     1
 62
    18
420
        0
176
     1
 90
       50
176
     1
 90
        3
176
     1
 62
     5
420
      255
176
     1
290
     0
176
     1
 90
       50
176
     1
 90
       50
176
     1
 90
       50
176
     1
290
     0
176
     1
 90
       50
176
     1
 62
   256
176
     0
 40
1.0
176
     0
 90
        2
176
     1
  1
strokes_ogs.tif
176
     1
290
     0
176
     1
 40
1.0
176
     1
 40
1.0
176
     1
1001
ACAD
1000
AcDbSavedByObjectVersion
1070
     0
  0
VISUALSTYLE
  5
3C4
102
{ACAD_REACTORS
330
3BB
102
}
330
3BB
100
AcDbVisualStyle
  2
Conceptual
 70
     9
177
     3
291
     0
 70
    58
 90
        3
176
     1
 90
        2
176
     1
 90
        0
176
     1
 90
        0
176
     1
 40
0.6
176
     1
 40
30.0
176
     1
 62
     7
420
 16777215
176
     1
 90
        2
176
     1
 90
        2
176
     1
 62
     7
176
     1
 62
   257
176
     1
 90
        1
176
     1
 90
        1
176
     1
 40
179.0
176
     1
 90
        8
176
     1
 62
     7
176
     1
 40
1.0
176
     1
 90
        1
176
     1
 90
        6
176
     1
 90
        2
176
     1
 62
     7
176
     1
 90
        3
176
     1
 90
        0
176
     1
 90
        0
176
     1
290
     0
176
     1
 90
        1
176
     1
 40
0.0
176
     1
 90
        0
176
     1
290
     0
176
     1
290
     1
176
     1
290
     1
176
     1
290
     0
176
     1
290
     0
176
     1
290
     0
176
     1
290
     0
176
     1
290
     0
176
     1
290
     0
176
     1
 90
       50
176
     1
 40
0.0
176
     1
 40
1.0
176
     1
 90
        0
176
     1
 62
    18
420
        0
176
     1
 90
       50
176
     1
 90
        3
176
     1
 62
     5
420
      255
176
     1
290
     0
176
     1
 90
       50
176
     1
 90
       50
176
     1
 90
       50
176
     1
290
     0
176
     1
 90
       50
176
     1
 62
   256
176
     0
 40
1.0
176
     0
 90
        2
176
     1
  1
strokes_ogs.tif
176
     1
290
     0
176
     1
 40
1.0
176
     1
 40
1.0
176
     1
1001
ACAD
1000
AcDbSavedByObjectVersion
1070
     0
  0
VISUALSTYLE
  5
3C6
102
{ACAD_REACTORS
330
3BB
102
}
330
3BB
100
AcDbVisualStyle
  2
Dim
 70
    11
177
     3
291
     1
 70
    58
 90
        2
176
     1
 90
        2
176
     1
 90
        0
176
     1
 90
        0
176
     1
 40
0.6
176
     1
 40
30.0
176
     1
 62
     7
420
 16777215
176
     1
 90
        1
176
     1
 90
        4
176
     1
 62
     7
176
     1
 62
   257
176
     1
 90
        1
176
     1
 90
        1
176
     1
 40
1.0
176
     1
 90
        8
176
     1
 62
     7
176
     1
 40
1.0
176
     1
 90
        1
176
     1
 90
        6
176
     1
 90
        2
176
     1
 62
     7
176
     1
 90
        5
176
     1
 90
        0
176
     1
 90
        0
176
     1
290
     0
176
     1
 90
        1
176
     1
 40
-50.0
176
     1
 90
        0
176
     1
290
     0
176
     1
290
     1
176
     1
290
     1
176
     1
290
     0
176
     1
290
     0
176
     1
290
     0
176
     1
290
     0
176
     1
290
     0
176
     1
290
     0
176
     1
 90
       50
176
     1
 40
0.0
176
     1
 40
1.0
176
     1
 90
        0
176
     1
 62
    18
420
        0
176
     1
 90
       50
176
     1
 90
        3
176
     1
 62
     5
420
      255
176
     1
290
     0
176
     1
 90
       50
176
     1
 90
       50
176
     1
 90
       50
176
     1
290
     0
176
     1
 90
       50
176
     1
 62
   256
176
     0
 40
1.0
176
     0
 90
        2
176
     1
  1
strokes_ogs.tif
176
     1
290
     0
176
     1
 40
1.0
176
     1
 40
1.0
176
     1
1001
ACAD
1000
AcDbSavedByObjectVersion
1070
     0
  0
VISUALSTYLE
  5
3D3
102
{ACAD_REACTORS
330
3BB
102
}
330
3BB
100
AcDbVisualStyle
  2
EdgeColorOff
 70
    22
177
     3
291
     1
 70
    58
 90
        2
176
     0
 90
        2
176
     0
 90
        0
176
     0
 90
        0
176
     0
 40
0.6
176
     0
 40
30.0
176
     0
 62
     7
420
 16777215
176
     0
 90
        1
176
     0
 90
        4
176
     0
 62
     7
176
     0
 62
   257
176
     0
 90
        1
176
     0
 90
        1
176
     0
 40
1.0
176
     0
 90
        8
176
     2
 62
     7
176
     0
 40
1.0
176
     0
 90
        1
176
     0
 90
        6
176
     0
 90
        2
176
     0
 62
     7
176
     0
 90
        5
176
     0
 90
        0
176
     0
 90
        0
176
     0
290
     0
176
     0
 90
        1
176
     0
 40
0.0
176
     0
 90
        0
176
     0
290
     0
176
     0
290
     1
176
     0
290
     1
176
     0
290
     0
176
     0
290
     0
176
     0
290
     0
176
     0
290
     0
176
     0
290
     0
176
     0
290
     0
176
     0
 90
       50
176
     0
 40
0.0
176
     0
 40
1.0
176
     0
 90
        0
176
     0
 62
    18
420
        0
176
     0
 90
       50
176
     0
 90
        3
176
     0
 62
     5
420
      255
176
     0
290
     0
176
     0
 90
       50
176
     0
 90
       50
176
     0
 90
       50
176
     0
290
     0
176
     0
 90
       50
176
     0
 62
   256
176
     0
 40
1.0
176
     0
 90
        2
176
     0
  1
strokes_ogs.tif
176
     0
290
     0
176
     0
 40
1.0
176
     0
 40
1.0
176
     0
1001
ACAD
1000
AcDbSavedByObjectVersion
1070
     0
  0
VISUALSTYLE
  5
3CA
102
{ACAD_REACTORS
330
3BB
102
}
330
3BB
100
AcDbVisualStyle
  2
Facepattern
 70
    15
177
     3
291
     1
 70
    58
 90
        2
176
     1
 90
        2
176
     1
 90
        0
176
     1
 90
        0
176
     1
 40
0.6
176
     1
 40
30.0
176
     1
 62
     7
420
 16777215
176
     1
 90
        1
176
     1
 90
        4
176
     1
 62
     7
176
     1
 62
   257
176
     1
 90
        1
176
     1
 90
        1
176
     1
 40
1.0
176
     1
 90
        8
176
     1
 62
     7
176
     1
 40
1.0
176
     1
 90
        1
176
     1
 90
        6
176
     1
 90
        2
176
     1
 62
     7
176
     1
 90
        5
176
     1
 90
        0
176
     1
 90
        0
176
     1
290
     0
176
     1
 90
        1
176
     1
 40
0.0
176
     1
 90
        0
176
     1
290
     0
176
     1
290
     1
176
     1
290
     1
176
     1
290
     0
176
     1
290
     0
176
     1
290
     0
176
     1
290
     0
176
     1
290
     0
176
     1
290
     0
176
     1
 90
       50
176
     1
 40
0.0
176
     1
 40
1.0
176
     1
 90
        0
176
     1
 62
    18
420
        0
176
     1
 90
       50
176
     1
 90
        3
176
     1
 62
     5
420
      255
176
     1
290
     0
176
     1
 90
       50
176
     1
 90
       50
176
     1
 90
       50
176
     1
290
     0
176
     1
 90
       50
176
     1
 62
   256
176
     0
 40
1.0
176
     0
 90
        2
176
     1
  1
strokes_ogs.tif
176
     1
290
     0
176
     1
 40
1.0
176
     1
 40
1.0
176
     1
1001
ACAD
1000
AcDbSavedByObjectVersion
1070
     0
  0
VISUALSTYLE
  5
3BC
102
{ACAD_REACTORS
330
3BB
102
}
330
3BB
100
AcDbVisualStyle
  2
Flat
 70
     0
177
     3
291
     1
 70
    58
 90
        2
176
     1
 90
        1
176
     1
 90
        1
176
     1
 90
        2
176
     1
 40
0.6
176
     1
 40
30.0
176
     1
 62
     7
420
 16777215
176
     1
 90
        0
176
     1
 90
        0
176
     1
 62
     7
176
     1
 62
   257
176
     1
 90
        1
176
     1
 90
        1
176
     1
 40
1.0
176
     1
 90
        8
176
     1
 62
     7
176
     1
 40
1.0
176
     1
 90
        1
176
     1
 90
        6
176
     1
 90
        2
176
     1
 62
     7
176
     1
 90
        5
176
     1
 90
        0
176
     1
 90
        0
176
     1
290
     0
176
     1
 90
       13
176
     1
 40
0.0
176
     1
 90
        0
176
     1
290
     0
176
     1
290
     1
176
     1
290
     1
176
     1
290
     0
176
     1
290
     0
176
     1
290
     0
176
     1
290
     0
176
     1
290
     0
176
     1
290
     0
176
     1
 90
       50
176
     1
 40
0.0
176
     1
 40
1.0
176
     1
 90
        0
176
     1
 62
    18
420
        0
176
     1
 90
       50
176
     1
 90
        3
176
     1
 62
     5
420
      255
176
     1
290
     0
176
     1
 90
       50
176
     1
 90
       50
176
     1
 90
       50
176
     1
290
     0
176
     1
 90
       50
176
     1
 62
   256
176
     0
 40
1.0
176
     0
 90
        2
176
     1
  1
strokes_ogs.tif
176
     1
290
     0
176
     1
 40
1.0
176
     1
 40
1.0
176
     1
1001
ACAD
1000
AcDbSavedByObjectVersion
1070
     0
  0
VISUALSTYLE
  5
3BD
102
{ACAD_REACTORS
330
3BB
102
}
330
3BB
100
AcDbVisualStyle
  2
FlatWithEdges
 70
     1
177
     3
291
     1
 70
    58
 90
        2
176
     1
 90
        1
176
     1
 90
        1
176
     1
 90
        2
176
     1
 40
0.6
176
     1
 40
30.0
176
     1
 62
     7
420
 16777215
176
     1
 90
        1
176
     1
 90
        0
176
     1
 62
     7
176
     1
 62
   257
176
     1
 90
        1
176
     1
 90
        1
176
     1
 40
1.0
176
     1
 90
        0
176
     1
 62
   257
176
     1
 40
1.0
176
     1
 90
        1
176
     1
 90
        6
176
     1
 90
        2
176
     1
 62
     7
176
     1
 90
        5
176
     1
 90
        0
176
     1
 90
        0
176
     1
290
     0
176
     1
 90
       13
176
     1
 40
0.0
176
     1
 90
        0
176
     1
290
     0
176
     1
290
     1
176
     1
290
     1
176
     1
290
     0
176
     1
290
     0
176
     1
290
     0
176
     1
290
     0
176
     1
290
     0
176
     1
290
     0
176
     1
 90
       50
176
     1
 40
0.0
176
     1
 40
1.0
176
     1
 90
        0
176
     1
 62
    18
420
        0
176
     1
 90
       50
176
     1
 90
        3
176
     1
 62
     5
420
      255
176
     1
290
     0
176
     1
 90
       50
176
     1
 90
       50
176
     1
 90
       50
176
     1
290
     0
176
     1
 90
       50
176
     1
 62
   256
176
     0
 40
1.0
176
     0
 90
        2
176
     1
  1
strokes_ogs.tif
176
     1
290
     0
176
     1
 40
1.0
176
     1
 40
1.0
176
     1
1001
ACAD
1000
AcDbSavedByObjectVersion
1070
     0
  0
VISUALSTYLE
  5
3BE
102
{ACAD_REACTORS
330
3BB
102
}
330
3BB
100
AcDbVisualStyle
  2
Gouraud
 70
     2
177
     3
291
     1
 70
    58
 90
        2
176
     1
 90
        2
176
     1
 90
        1
176
     1
 90
        2
176
     1
 40
0.6
176
     1
 40
30.0
176
     1
 62
     7
420
 16777215
176
     1
 90
        0
176
     1
 90
        0
176
     1
 62
     7
176
     1
 62
   257
176
     1
 90
        1
176
     1
 90
        1
176
     1
 40
1.0
176
     1
 90
        0
176
     1
 62
     7
176
     1
 40
1.0
176
     1
 90
        1
176
     1
 90
        6
176
     1
 90
        2
176
     1
 62
     7
176
     1
 90
        5
176
     1
 90
        0
176
     1
 90
        0
176
     1
290
     0
176
     1
 90
       13
176
     1
 40
0.0
176
     1
 90
        0
176
     1
290
     0
176
     1
290
     1
176
     1
290
     1
176
     1
290
     0
176
     1
290
     0
176
     1
290
     0
176
     1
290
     0
176
     1
290
     0
176
     1
290
     0
176
     1
 90
       50
176
     1
 40
0.0
176
     1
 40
1.0
176
     1
 90
        0
176
     1
 62
    18
420
        0
176
     1
 90
       50
176
     1
 90
        3
176
     1
 62
     5
420
      255
176
     1
290
     0
176
     1
 90
       50
176
     1
 90
       50
176
     1
 90
       50
176
     1
290
     0
176
     1
 90
       50
176
     1
 62
   256
176
     0
 40
1.0
176
     0
 90
        2
176
     1
  1
strokes_ogs.tif
176
     1
290
     0
176
     1
 40
1.0
176
     1
 40
1.0
176
     1
1001
ACAD
1000
AcDbSavedByObjectVersion
1070
     0
  0
VISUALSTYLE
  5
3BF
102
{ACAD_REACTORS
330
3BB
102
}
330
3BB
100
AcDbVisualStyle
  2
GouraudWithEdges
 70
     3
177
     3
291
     1
 70
    58
 90
        2
176
     1
 90
        2
176
     1
 90
        1
176
     1
 90
        2
176
     1
 40
0.6
176
     1
 40
30.0
176
     1
 62
     7
420
 16777215
176
     1
 90
        1
176
     1
 90
        0
176
     1
 62
     7
176
     1
 62
   257
176
     1
 90
        1
176
     1
 90
        1
176
     1
 40
1.0
176
     1
 90
        0
176
     1
 62
   257
176
     1
 40
1.0
176
     1
 90
        1
176
     1
 90
        6
176
     1
 90
        2
176
     1
 62
     7
176
     1
 90
        5
176
     1
 90
        0
176
     1
 90
        0
176
     1
290
     0
176
     1
 90
       13
176
     1
 40
0.0
176
     1
 90
        0
176
     1
290
     0
176
     1
290
     1
176
     1
290
     1
176
     1
290
     0
176
     1
290
     0
176
     1
290
     0
176
     1
290
     0
176
     1
290
     0
176
     1
290
     0
176
     1
 90
       50
176
     1
 40
0.0
176
     1
 40
1.0
176
     1
 90
        0
176
     1
 62
    18
420
        0
176
     1
 90
       50
176
     1
 90
        3
176
     1
 62
     5
420
      255
176
     1
290
     0
176
     1
 90
       50
176
     1
 90
       50
176
     1
 90
       50
176
     1
290
     0
176
     1
 90
       50
176
     1
 62
   256
176
     0
 40
1.0
176
     0
 90
        2
176
     1
  1
strokes_ogs.tif
176
     1
290
     0
176
     1
 40
1.0
176
     1
 40
1.0
176
     1
1001
ACAD
1000
AcDbSavedByObjectVersion
1070
     0
  0
VISUALSTYLE
  5
3C3
102
{ACAD_REACTORS
330
3BB
102
}
330
3BB
100
AcDbVisualStyle
  2
Hidden
 70
     6
177
     3
291
     0
 70
    58
 90
        1
176
     1
 90
        2
176
     1
 90
        2
176
     1
 90
        0
176
     1
 40
0.6
176
     1
 40
30.0
176
     1
 62
     7
420
 16777215
176
     1
 90
        2
176
     1
 90
        2
176
     1
 62
     7
176
     1
 62
   257
176
     1
 90
        2
176
     1
 90
        1
176
     1
 40
40.0
176
     1
 90
        0
176
     1
 62
   257
176
     1
 40
1.0
176
     1
 90
        1
176
     1
 90
        6
176
     1
 90
        2
176
     1
 62
     7
176
     1
 90
        3
176
     1
 90
        0
176
     1
 90
        0
176
     1
290
     0
176
     1
 90
        1
176
     1
 40
0.0
176
     1
 90
        0
176
     1
290
     0
176
     1
290
     1
176
     1
290
     1
176
     1
290
     0
176
     1
290
     0
176
     1
290
     0
176
     1
290
     0
176
     1
290
     0
176
     1
290
     0
176
     1
 90
       50
176
     1
 40
0.0
176
     1
 40
1.0
176
     1
 90
        0
176
     1
 62
    18
420
        0
176
     1
 90
       50
176
     1
 90
        3
176
     1
 62
     5
420
      255
176
     1
290
     0
176
     1
 90
       50
176
     1
 90
       50
176
     1
 90
       50
176
     1
290
     0
176
     1
 90
       50
176
     1
 62
   256
176
     0
 40
1.0
176
     0
 90
        2
176
     1
  1
strokes_ogs.tif
176
     1
290
     0
176
     1
 40
1.0
176
     1
 40
1.0
176
     1
1001
ACAD
1000
AcDbSavedByObjectVersion
1070
     0
  0
VISUALSTYLE
  5
3D1
102
{ACAD_REACTORS
330
3BB
102
}
330
3BB
100
AcDbVisualStyle
  2
JitterOff
 70
    20
177
     3
291
     1
 70
    58
 90
        2
176
     0
 90
        2
176
     0
 90
        0
176
     0
 90
        0
176
     0
 40
0.6
176
     0
 40
30.0
176
     0
 62
     7
420
 16777215
176
     0
 90
        1
176
     0
 90
        4
176
     0
 62
     7
176
     0
 62
   257
176
     0
 90
        1
176
     0
 90
        1
176
     0
 40
1.0
176
     0
 90
       10
176
     2
 62
     7
176
     0
 40
1.0
176
     0
 90
        1
176
     0
 90
        6
176
     0
 90
        2
176
     0
 62
     7
176
     0
 90
        5
176
     0
 90
        0
176
     0
 90
        0
176
     0
290
     0
176
     0
 90
        1
176
     0
 40
0.0
176
     0
 90
        0
176
     0
290
     0
176
     0
290
     1
176
     0
290
     1
176
     0
290
     0
176
     0
290
     0
176
     0
290
     0
176
     0
290
     0
176
     0
290
     0
176
     0
290
     0
176
     0
 90
       50
176
     0
 40
0.0
176
     0
 40
1.0
176
     0
 90
        0
176
     0
 62
    18
420
        0
176
     0
 90
       50
176
     0
 90
        3
176
     0
 62
     5
420
      255
176
     0
290
     0
176
     0
 90
       50
176
     0
 90
       50
176
     0
 90
       50
176
     0
290
     0
176
     0
 90
       50
176
     0
 62
   256
176
     0
 40
1.0
176
     0
 90
        2
176
     0
  1
strokes_ogs.tif
176
     0
290
     0
176
     0
 40
1.0
176
     0
 40
1.0
176
     0
1001
ACAD
1000
AcDbSavedByObjectVersion
1070
     0
  0
VISUALSTYLE
  5
3C9
102
{ACAD_REACTORS
330
3BB
102
}
330
3BB
100
AcDbVisualStyle
  2
Linepattern
 70
    14
177
     3
291
     1
 70
    58
 90
        2
176
     1
 90
        2
176
     1
 90
        0
176
     1
 90
        0
176
     1
 40
0.6
176
     1
 40
30.0
176
     1
 62
     7
420
 16777215
176
     1
 90
        1
176
     1
 90
        4
176
     1
 62
     7
176
     1
 62
   257
176
     1
 90
        7
176
     1
 90
        7
176
     1
 40
1.0
176
     1
 90
        8
176
     1
 62
     7
176
     1
 40
1.0
176
     1
 90
        1
176
     1
 90
        6
176
     1
 90
        2
176
     1
 62
     7
176
     1
 90
        5
176
     1
 90
        0
176
     1
 90
        0
176
     1
290
     0
176
     1
 90
        1
176
     1
 40
0.0
176
     1
 90
        0
176
     1
290
     0
176
     1
290
     1
176
     1
290
     1
176
     1
290
     0
176
     1
290
     0
176
     1
290
     0
176
     1
290
     0
176
     1
290
     0
176
     1
290
     0
176
     1
 90
       50
176
     1
 40
0.0
176
     1
 40
1.0
176
     1
 90
        0
176
     1
 62
    18
420
        0
176
     1
 90
       50
176
     1
 90
        3
176
     1
 62
     5
420
      255
176
     1
290
     0
176
     1
 90
       50
176
     1
 90
       50
176
     1
 90
       50
176
     1
290
     0
176
     1
 90
       50
176
     1
 62
   256
176
     0
 40
1.0
176
     0
 90
        2
176
     1
  1
strokes_ogs.tif
176
     1
290
     0
176
     1
 40
1.0
176
     1
 40
1.0
176
     1
1001
ACAD
1000
AcDbSavedByObjectVersion
1070
     0
  0
VISUALSTYLE
  5
3D2
102
{ACAD_REACTORS
330
3BB
102
}
330
3BB
100
AcDbVisualStyle
  2
OverhangOff
 70
    21
177
     3
291
     1
 70
    58
 90
        2
176
     0
 90
        2
176
     0
 90
        0
176
     0
 90
        0
176
     0
 40
0.6
176
     0
 40
30.0
176
     0
 62
     7
420
 16777215
176
     0
 90
        1
176
     0
 90
        4
176
     0
 62
     7
176
     0
 62
   257
176
     0
 90
        1
176
     0
 90
        1
176
     0
 40
1.0
176
     0
 90
        9
176
     2
 62
     7
176
     0
 40
1.0
176
     0
 90
        1
176
     0
 90
        6
176
     0
 90
        2
176
     0
 62
     7
176
     0
 90
        5
176
     0
 90
        0
176
     0
 90
        0
176
     0
290
     0
176
     0
 90
        1
176
     0
 40
0.0
176
     0
 90
        0
176
     0
290
     0
176
     0
290
     1
176
     0
290
     1
176
     0
290
     0
176
     0
290
     0
176
     0
290
     0
176
     0
290
     0
176
     0
290
     0
176
     0
290
     0
176
     0
 90
       50
176
     0
 40
0.0
176
     0
 40
1.0
176
     0
 90
        0
176
     0
 62
    18
420
        0
176
     0
 90
       50
176
     0
 90
        3
176
     0
 62
     5
420
      255
176
     0
290
     0
176
     0
 90
       50
176
     0
 90
       50
176
     0
 90
       50
176
     0
290
     0
176
     0
 90
       50
176
     0
 62
   256
176
     0
 40
1.0
176
     0
 90
        2
176
     0
  1
strokes_ogs.tif
176
     0
290
     0
176
     0
 40
1.0
176
     0
 40
1.0
176
     0
1001
ACAD
1000
AcDbSavedByObjectVersion
1070
     0
  0
VISUALSTYLE
  5
3C5
102
{ACAD_REACTORS
330
3BB
102
}
330
3BB
100
AcDbVisualStyle
  2
Realistic
 70
     8
177
     3
291
     0
 70
    58
 90
        2
176
     1
 90
        3
176
     1
 90
        0
176
     1
 90
        2
176
     1
 40
0.6
176
     1
 40
30.0
176
     1
 62
     7
420
 16777215
176
     1
 90
        0
176
     1
 90
        0
176
     1
 62
     7
176
     1
 62
   257
176
     1
 90
        1
176
     1
 90
        1
176
     1
 40
1.0
176
     1
 90
        8
176
     1
 62
   257
176
     1
 40
1.0
176
     1
 90
        1
176
     1
 90
        6
176
     1
 90
        2
176
     1
 62
     7
176
     1
 90
        3
176
     1
 90
        0
176
     1
 90
        0
176
     1
290
     0
176
     1
 90
       13
176
     1
 40
0.0
176
     1
 90
        0
176
     1
290
     0
176
     1
290
     1
176
     1
290
     1
176
     1
290
     0
176
     1
290
     0
176
     1
290
     0
176
     1
290
     0
176
     1
290
     0
176
     1
290
     0
176
     1
 90
       50
176
     1
 40
0.0
176
     1
 40
1.0
176
     1
 90
        0
176
     1
 62
    18
420
        0
176
     1
 90
       50
176
     1
 90
        3
176
     1
 62
     5
420
      255
176
     1
290
     0
176
     1
 90
       50
176
     1
 90
       50
176
     1
 90
       50
176
     1
290
     0
176
     1
 90
       50
176
     1
 62
   256
176
     0
 40
1.0
176
     0
 90
        2
176
     1
  1
strokes_ogs.tif
176
     1
290
     0
176
     1
 40
1.0
176
     1
 40
1.0
176
     1
1001
ACAD
1000
AcDbSavedByObjectVersion
1070
     0
  0
VISUALSTYLE
  5
3D0
102
{ACAD_REACTORS
330
3BB
102
}
330
3BB
100
AcDbVisualStyle
  2
Shaded
 70
    27
177
     3
291
     0
 70
    58
 90
        2
176
     1
 90
        2
176
     1
 90
        1
176
     1
 90
        2
176
     1
 40
0.6
176
     1
 40
30.0
176
     1
 62
     7
420
 16777215
176
     1
 90
        0
176
     1
 90
        4
176
     1
 62
     7
176
     1
 62
   257
176
     1
 90
        1
176
     1
 90
        1
176
     1
 40
1.0
176
     1
 90
        8
176
     1
 62
   257
176
     1
 40
1.0
176
     1
 90
        1
176
     1
 90
        6
176
     1
 90
        2
176
     1
 62
     8
420
  7895160
176
     1
 90
        3
176
     1
 90
        0
176
     1
 90
        0
176
     1
290
     0
176
     1
 90
        5
176
     1
 40
0.0
176
     1
 90
        0
176
     1
290
     0
176
     1
290
     1
176
     1
290
     1
176
     1
290
     0
176
     1
290
     0
176
     1
290
     0
176
     1
290
     0
176
     1
290
     0
176
     1
290
     0
176
     1
 90
       50
176
     1
 40
0.0
176
     1
 40
1.0
176
     1
 90
        0
176
     1
 62
    18
420
        0
176
     1
 90
       50
176
     1
 90
        3
176
     1
 62
     5
420
      255
176
     1
290
     0
176
     1
 90
       50
176
     1
 90
       50
176
     1
 90
       50
176
     1
290
     0
176
     1
 90
       50
176
     1
 62
   256
176
     0
 40
1.0
176
     0
 90
        2
176
     1
  1
strokes_ogs.tif
176
     1
290
     0
176
     1
 40
1.0
176
     1
 40
1.0
176
     1
1001
ACAD
1000
AcDbSavedByObjectVersion
1070
     0
  0
VISUALSTYLE
  5
3CF
102
{ACAD_REACTORS
330
3BB
102
}
330
3BB
100
AcDbVisualStyle
  2
Shaded with edges
 70
    26
177
     3
291
     0
 70
    58
 90
        2
176
     1
 90
        2
176
     1
 90
        1
176
     1
 90
        2
176
     1
 40
0.6
176
     1
 40
30.0
176
     1
 62
     7
420
 16777215
176
     1
 90
        1
176
     1
 90
        2
176
     1
 62
     7
176
     1
 62
   257
176
     1
 90
        2
176
     1
 90
        1
176
     1
 40
1.0
176
     1
 90
        8
176
     1
 62
   257
176
     1
 40
1.0
176
     1
 90
        1
176
     1
 90
        6
176
     1
 90
        2
176
     1
 62
     7
176
     1
 90
        3
176
     1
 90
        0
176
     1
 90
        0
176
     1
290
     0
176
     1
 90
        5
176
     1
 40
0.0
176
     1
 90
        0
176
     1
290
     0
176
     1
290
     1
176
     1
290
     1
176
     1
290
     0
176
     1
290
     0
176
     1
290
     0
176
     1
290
     0
176
     1
290
     0
176
     1
290
     0
176
     1
 90
       50
176
     1
 40
0.0
176
     1
 40
1.0
176
     1
 90
        0
176
     1
 62
    18
420
        0
176
     1
 90
       50
176
     1
 90
        3
176
     1
 62
     5
420
      255
176
     1
290
     0
176
     1
 90
       50
176
     1
 90
       50
176
     1
 90
       50
176
     1
290
     0
176
     1
 90
       50
176
     1
 62
   256
176
     0
 40
1.0
176
     0
 90
        2
176
     1
  1
strokes_ogs.tif
176
     1
290
     0
176
     1
 40
1.0
176
     1
 40
1.0
176
     1
1001
ACAD
1000
AcDbSavedByObjectVersion
1070
     0
  0
VISUALSTYLE
  5
3CC
102
{ACAD_REACTORS
330
3BB
102
}
330
3BB
100
AcDbVisualStyle
  2
Shades of Gray
 70
    23
177
     3
291
     0
 70
    58
 90
        2
176
     1
 90
        2
176
     1
 90
        3
176
     1
 90
        0
176
     1
 40
0.6
176
     1
 40
30.0
176
     1
 62
     7
420
 16777215
176
     1
 90
        2
176
     1
 90
        2
176
     1
 62
     7
176
     1
 62
     7
176
     1
 90
        1
176
     1
 90
        1
176
     1
 40
40.0
176
     1
 90
        8
176
     1
 62
     7
176
     1
 40
1.0
176
     1
 90
        1
176
     1
 90
        6
176
     1
 90
        2
176
     1
 62
     7
176
     1
 90
        3
176
     1
 90
        0
176
     1
 90
        0
176
     1
290
     0
176
     1
 90
        1
176
     1
 40
0.0
176
     1
 90
        0
176
     1
290
     0
176
     1
290
     1
176
     1
290
     1
176
     1
290
     0
176
     1
290
     0
176
     1
290
     0
176
     1
290
     0
176
     1
290
     0
176
     1
290
     0
176
     1
 90
       50
176
     1
 40
0.0
176
     1
 40
1.0
176
     1
 90
        0
176
     1
 62
    18
420
        0
176
     1
 90
       50
176
     1
 90
        3
176
     1
 62
     5
420
      255
176
     1
290
     0
176
     1
 90
       50
176
     1
 90
       50
176
     1
 90
       50
176
     1
290
     0
176
     1
 90
       50
176
     1
 62
   256
176
     0
 40
1.0
176
     0
 90
        2
176
     1
  1
strokes_ogs.tif
176
     1
290
     0
176
     1
 40
1.0
176
     1
 40
1.0
176
     1
1001
ACAD
1000
AcDbSavedByObjectVersion
1070
     0
  0
VISUALSTYLE
  5
3CD
102
{ACAD_REACTORS
330
3BB
102
}
330
3BB
100
AcDbVisualStyle
  2
Sketchy
 70
    24
177
     3
291
     0
 70
    58
 90
        1
176
     1
 90
        2
176
     1
 90
        2
176
     1
 90
        0
176
     1
 40
0.6
176
     1
 40
30.0
176
     1
 62
     7
420
 16777215
176
     1
 90
        2
176
     1
 90
        2
176
     1
 62
     7
176
     1
 62
     7
176
     1
 90
        1
176
     1
 90
        1
176
     1
 40
40.0
176
     1
 90
       11
176
     1
 62
     7
176
     1
 40
1.0
176
     1
 90
        1
176
     1
 90
        6
176
     1
 90
        2
176
     1
 62
     7
176
     1
 90
        6
176
     1
 90
        0
176
     1
 90
        0
176
     1
290
     0
176
     1
 90
        1
176
     1
 40
0.0
176
     1
 90
        0
176
     1
290
     0
176
     1
290
     1
176
     1
290
     1
176
     1
290
     0
176
     1
290
     0
176
     1
290
     0
176
     1
290
     0
176
     1
290
     0
176
     1
290
     0
176
     1
 90
       50
176
     1
 40
0.0
176
     1
 40
1.0
176
     1
 90
        0
176
     1
 62
    18
420
        0
176
     1
 90
       50
176
     1
 90
        3
176
     1
 62
     5
420
      255
176
     1
290
     0
176
     1
 90
       50
176
     1
 90
       50
176
     1
 90
       50
176
     1
290
     0
176
     1
 90
       50
176
     1
 62
   256
176
     0
 40
1.0
176
     0
 90
        2
176
     1
  1
strokes_ogs.tif
176
     1
290
     0
176
     1
 40
1.0
176
     1
 40
1.0
176
     1
1001
ACAD
1000
AcDbSavedByObjectVersion
1070
     0
  0
VISUALSTYLE
  5
3C8
102
{ACAD_REACTORS
330
3BB
102
}
330
3BB
100
AcDbVisualStyle
  2
Thicken
 70
    13
177
     3
291
     1
 70
    58
 90
        2
176
     1
 90
        2
176
     1
 90
        0
176
     1
 90
        0
176
     1
 40
0.6
176
     1
 40
30.0
176
     1
 62
     7
420
 16777215
176
     1
 90
        1
176
     1
 90
        4
176
     1
 62
     7
176
     1
 62
   257
176
     1
 90
        1
176
     1
 90
        1
176
     1
 40
1.0
176
     1
 90
       12
176
     1
 62
     7
176
     1
 40
1.0
176
     1
 90
        1
176
     1
 90
        6
176
     1
 90
        2
176
     1
 62
     7
176
     1
 90
        5
176
     1
 90
        0
176
     1
 90
        0
176
     1
290
     0
176
     1
 90
        1
176
     1
 40
0.0
176
     1
 90
        0
176
     1
290
     0
176
     1
290
     1
176
     1
290
     1
176
     1
290
     0
176
     1
290
     0
176
     1
290
     0
176
     1
290
     0
176
     1
290
     0
176
     1
290
     0
176
     1
 90
       50
176
     1
 40
0.0
176
     1
 40
1.0
176
     1
 90
        0
176
     1
 62
    18
420
        0
176
     1
 90
       50
176
     1
 90
        3
176
     1
 62
     5
420
      255
176
     1
290
     0
176
     1
 90
       50
176
     1
 90
       50
176
     1
 90
       50
176
     1
290
     0
176
     1
 90
       50
176
     1
 62
   256
176
     0
 40
1.0
176
     0
 90
        2
176
     1
  1
strokes_ogs.tif
176
     1
290
     0
176
     1
 40
1.0
176
     1
 40
1.0
176
     1
1001
ACAD
1000
AcDbSavedByObjectVersion
1070
     0
  0
VISUALSTYLE
  5
3C2
102
{ACAD_REACTORS
330
3BB
102
}
330
3BB
100
AcDbVisualStyle
  2
Wireframe
 70
     5
177
     3
291
     0
 70
    58
 90
        0
176
     1
 90
        2
176
     1
 90
        0
176
     1
 90
        0
176
     1
 40
0.6
176
     1
 40
30.0
176
     1
 62
     7
420
 16777215
176
     1
 90
        1
176
     1
 90
        4
176
     1
 62
     7
176
     1
 62
   257
176
     1
 90
        1
176
     1
 90
        1
176
     1
 40
1.0
176
     1
 90
        0
176
     1
 62
   257
176
     1
 40
1.0
176
     1
 90
        1
176
     1
 90
        6
176
     1
 90
        2
176
     1
 62
     7
176
     1
 90
        3
176
     1
 90
        0
176
     1
 90
        0
176
     1
290
     0
176
     1
 90
        1
176
     1
 40
0.0
176
     1
 90
        0
176
     1
290
     0
176
     1
290
     1
176
     1
290
     1
176
     1
290
     0
176
     1
290
     0
176
     1
290
     0
176
     1
290
     0
176
     1
290
     0
176
     1
290
     0
176
     1
 90
       50
176
     1
 40
0.0
176
     1
 40
1.0
176
     1
 90
        0
176
     1
 62
    18
420
        0
176
     1
 90
       50
176
     1
 90
        3
176
     1
 62
     5
420
      255
176
     1
290
     0
176
     1
 90
       50
176
     1
 90
       50
176
     1
 90
       50
176
     1
290
     0
176
     1
 90
       50
176
     1
 62
   256
176
     0
 40
1.0
176
     0
 90
        2
176
     1
  1
strokes_ogs.tif
176
     1
290
     0
176
     1
 40
1.0
176
     1
 40
1.0
176
     1
1001
ACAD
1000
AcDbSavedByObjectVersion
1070
     0
  0
VISUALSTYLE
  5
3CE
102
{ACAD_REACTORS
330
3BB
102
}
330
3BB
100
AcDbVisualStyle
  2
X-Ray
 70
    25
177
     3
291
     0
 70
    58
 90
        2
176
     1
 90
        2
176
     1
 90
        1
176
     1
 90
        1
176
     1
 40
0.5
176
     1
 40
30.0
176
     1
 62
     7
420
 16777215
176
     1
 90
        1
176
     1
 90
        0
176
     1
 62
     7
176
     1
 62
   257
176
     1
 90
        1
176
     1
 90
        1
176
     1
 40
1.0
176
     1
 90
        8
176
     1
 62
     7
176
     1
 40
1.0
176
     1
 90
        1
176
     1
 90
        6
176
     1
 90
        2
176
     1
 62
     7
176
     1
 90
        3
176
     1
 90
        0
176
     1
 90
        0
176
     1
290
     0
176
     1
 90
       13
176
     1
 40
0.0
176
     1
 90
        0
176
     1
290
     0
176
     1
290
     1
176
     1
290
     1
176
     1
290
     0
176
     1
290
     0
176
     1
290
     0
176
     1
290
     0
176
     1
290
     0
176
     1
290
     0
176
     1
 90
       50
176
     1
 40
0.0
176
     1
 40
1.0
176
     1
 90
        0
176
     1
 62
    18
420
        0
176
     1
 90
       50
176
     1
 90
        3
176
     1
 62
     5
420
      255
176
     1
290
     0
176
     1
 90
       50
176
     1
 90
       50
176
     1
 90
       50
176
     1
290
     0
176
     1
 90
       50
176
     1
 62
   256
176
     0
 40
1.0
176
     0
 90
        2
176
     1
  1
strokes_ogs.tif
176
     1
290
     0
176
     1
 40
1.0
176
     1
 40
1.0
176
     1
1001
ACAD
1000
AcDbSavedByObjectVersion
1070
     0
  0
DICTIONARYVAR
  5
37D
102
{ACAD_REACTORS
330
37C
102
}
330
37C
100
DictionaryVariables
280
     0
  1
1:1
  0
DICTIONARYVAR
  5
3F0
102
{ACAD_REACTORS
330
37C
102
}
330
37C
100
DictionaryVariables
280
     0
  1
STANDARD
  0
DICTIONARYVAR
  5
3B7
102
{ACAD_REACTORS
330
37C
102
}
330
37C
100
DictionaryVariables
280
     0
  1
STANDARD
  0
DICTIONARYVAR
  5
3F1
102
{ACAD_REACTORS
330
37C
102
}
330
37C
100
DictionaryVariables
280
     0
  1
Metric50
  0
DICTIONARYVAR
  5
3F2
102
{ACAD_REACTORS
330
37C
102
}
330
37C
100
DictionaryVariables
280
     0
  1
Metric50
  0
DICTIONARYVAR
  5
3F4
102
{ACAD_REACTORS
330
37C
102
}
330
37C
100
DictionaryVariables
280
     0
  1
1
  0
DICTIONARYVAR
  5
3F5
102
{ACAD_REACTORS
330
37C
102
}
330
37C
100
DictionaryVariables
280
     0
  1
15
  0
DICTIONARYVAR
  5
3F3
102
{ACAD_REACTORS
330
37C
102
}
330
37C
100
DictionaryVariables
280
     0
  1
0
  0
DICTIONARYVAR
  5
3B8
102
{ACAD_REACTORS
330
37C
102
}
330
37C
100
DictionaryVariables
280
     0
  1
0
  0
DICTIONARY
  5
430
102
{ACAD_REACTORS
330
42E
102
}
330
42E
100
AcDbDictionary
281
     1
  0
DICTIONARY
  5
42F
102
{ACAD_REACTORS
330
42E
102
}
330
42E
100
AcDbDictionary
281
     1
  3
2109059640592
350
429
  3
2109059640608
350
42A
  3
2109059640624
350
42B
  3
2109059640640
350
42C
  3
2109059640656
350
42D
  0
XRECORD
  5
3A2
102
{ACAD_REACTORS
330
3A1
102
}
330
3A1
100
AcDbXrecord
280
     1
 91
     1023
301

290
     0
302
0
330
10
 90
        8
 62
     7
370
    -3
331
16
  1
Color_7
330
71
 90
        8
 62
     7
370
    -3
331
6A
  1
Color_7
330
0
 90
        8
 62
     7
370
    -3
331
6A
  1
Color_7
330
0
 90
        8
 62
     7
370
    -3
331
6A
  1
Color_7
330
0
 90
        0
 62
     7
370
    -3
331
16
  1
Color_7
  0
XRECORD
  5
3AA
102
{ACAD_REACTORS
330
3A1
102
}
330
3A1
100
AcDbXrecord
280
     1
 91
     1023
301

290
     0
302
0
330
10
 90
        8
 62
     7
370
    -3
331
16
  1
Color_7
330
71
 90
        8
 62
     7
370
    -3
331
6A
  1
Color_7
330
0
 90
        8
 62
     7
370
    -3
331
6A
  1
Color_7
330
0
 90
        8
 62
     7
370
    -3
331
6A
  1
Color_7
330
0
 90
        0
 62
     7
370
    -3
331
16
  1
Color_7
330
3A3
 90
        8
 62
     6
370
    -3
331
16
  1
Color_6
330
3A5
 90
        8
 62
     1
370
    -3
331
16
  1
Color_1
  0
XRECORD
  5
3AD
102
{ACAD_REACTORS
330
3A1
102
}
330
3A1
100
AcDbXrecord
280
     1
 91
     1023
301

290
     0
302
bath
330
10
 90
        8
 62
     7
370
    -3
331
16
  1
Color_7
330
71
 90
        8
 62
     7
370
    -3
331
6A
  1
Color_7
330
3A3
 90
        8
 62
     6
370
    -3
331
16
  1
Color_6
330
3A5
 90
        8
 62
     1
370
    -3
331
16
  1
Color_1
  0
XRECORD
  5
3AF
102
{ACAD_REACTORS
330
3A1
102
}
330
3A1
100
AcDbXrecord
280
     1
 91
     1023
301

290
     0
302
bath
330
10
 90
        8
 62
     7
370
    -3
331
16
  1
Color_7
330
71
 90
        8
 62
     7
370
    -3
331
6A
  1
Color_7
330
3A3
 90
        8
 62
     6
370
    -3
331
16
  1
Color_6
330
3A5
 90
        8
 62
     1
370
    -3
331
16
  1
Color_1
  0
DICTIONARY
  5
433
330
3D7
100
AcDbDictionary
280
     1
281
     1
  3
ACAD_XREC_ROUNDTRIP
360
434
  0
DICTIONARY
  5
431
330
3D6
100
AcDbDictionary
280
     1
281
     1
  3
ACAD_XREC_ROUNDTRIP
360
432
  0
DICTIONARY
  5
3B3
330
39B
100
AcDbDictionary
280
     1
281
     1
  3
ACAD_ROUNDTRIP_2008_TABLESTYLE_CELLSTYLEMAP
360
427
  0
XRECORD
  5
429
102
{ACAD_REACTORS
330
42F
102
}
330
42F
100
AcDbXrecord
280
     1
  1
AcDb_Thumbnail_Schema
102
{ATTRRECORD
341
42A
  2
AcDbDs::TreatedAsObjectData
280
     1
291
     1
102
ATTRRECORD}
102
{ATTRRECORD
341
42B
  2
AcDbDs::Legacy
280
     1
291
     1
102
ATTRRECORD}
  2
AcDbDs::ID
280
    10
 91
        8
102
{ATTRRECORD
341
42C
  2
AcDs:Indexable
280
     1
291
     1
102
ATTRRECORD}
102
{ATTRRECORD
341
42D
  2
AcDbDs::HandleAttribute
280
     7
282
     1
102
ATTRRECORD}
  2
Thumbnail_Data
280
    15
 91
        0
  0
XRECORD
  5
42A
102
{ACAD_REACTORS
330
42F
102
}
330
42F
100
AcDbXrecord
280
     1
  1
AcDbDs::TreatedAsObjectDataSchema
  2
AcDbDs::TreatedAsObjectData
280
     1
 91
        0
  0
XRECORD
  5
42B
102
{ACAD_REACTORS
330
42F
102
}
330
42F
100
AcDbXrecord
280
     1
  1
AcDbDs::LegacySchema
  2
AcDbDs::Legacy
280
     1
 91
        0
  0
XRECORD
  5
42C
102
{ACAD_REACTORS
330
42F
102
}
330
42F
100
AcDbXrecord
280
     1
  1
AcDbDs::IndexedPropertySchema
  2
AcDs:Indexable
280
     1
 91
        0
  0
XRECORD
  5
42D
102
{ACAD_REACTORS
330
42F
102
}
330
42F
100
AcDbXrecord
280
     1
  1
AcDbDs::HandleAttributeSchema
  2
AcDbDs::HandleAttribute
280
     7
 91
        1
284
     1
  0
XRECORD
  5
434
102
{ACAD_REACTORS
330
433
102
}
330
433
100
AcDbXrecord
280
     1
102
DISPLAYNAME
  1
Metric50
102
FLAGS
 90
        0
  0
XRECORD
  5
432
102
{ACAD_REACTORS
330
431
102
}
330
431
100
AcDbXrecord
280
     1
102
DISPLAYNAME
  1
Metric50
102
FLAGS
 90
        0
  0
CELLSTYLEMAP
  5
427
102
{ACAD_REACTORS
330
3B3
102
}
330
3B3
100
AcDbCellStyleMap
 90
        3
300
CELLSTYLE
  1
TABLEFORMAT_BEGIN
 90
        5
170
     1
 91
        0
 92
        0
 62
   257
 93
        1
300
CONTENTFORMAT
  1
CONTENTFORMAT_BEGIN
 90
        0
 91
        0
 92
        4
 93
        0
300

 40
0.0
140
1.0
 94
        5
 62
     0
340
11
144
6.0
309
CONTENTFORMAT_END
171
     1
301
MARGIN
  1
CELLMARGIN_BEGIN
 40
1.5
 40
1.5
 40
1.5
 40
1.5
 40
1.5
 40
1.5
309
CELLMARGIN_END
 94
        6
 95
        1
302
GRIDFORMAT
  1
GRIDFORMAT_BEGIN
 90
        0
 91
        1
 62
     0
 92
       -2
340
14
 93
        0
 40
0.045
309
GRIDFORMAT_END
 95
        2
302
GRIDFORMAT
  1
GRIDFORMAT_BEGIN
 90
        0
 91
        1
 62
     0
 92
       -2
340
14
 93
        0
 40
0.045
309
GRIDFORMAT_END
 95
        4
302
GRIDFORMAT
  1
GRIDFORMAT_BEGIN
 90
        0
 91
        1
 62
     0
 92
       -2
340
14
 93
        0
 40
0.045
309
GRIDFORMAT_END
 95
        8
302
GRIDFORMAT
  1
GRIDFORMAT_BEGIN
 90
        0
 91
        1
 62
     0
 92
       -2
340
14
 93
        0
 40
0.045
309
GRIDFORMAT_END
 95
       16
302
GRIDFORMAT
  1
GRIDFORMAT_BEGIN
 90
        0
 91
        1
 62
     0
 92
       -2
340
14
 93
        0
 40
0.045
309
GRIDFORMAT_END
 95
       32
302
GRIDFORMAT
  1
GRIDFORMAT_BEGIN
 90
        0
 91
        1
 62
     0
 92
       -2
340
14
 93
        0
 40
0.045
309
GRIDFORMAT_END
309
TABLEFORMAT_END
  1
CELLSTYLE_BEGIN
 90
        1
 91
        1
300
_TITLE
309
CELLSTYLE_END
300
CELLSTYLE
  1
TABLEFORMAT_BEGIN
 90
        5
170
     1
 91
        0
 92
        0
 62
   257
 93
        1
300
CONTENTFORMAT
  1
CONTENTFORMAT_BEGIN
 90
        0
 91
        0
 92
        4
 93
        0
300

 40
0.0
140
1.0
 94
        5
 62
     0
340
11
144
4.5
309
CONTENTFORMAT_END
171
     1
301
MARGIN
  1
CELLMARGIN_BEGIN
 40
1.5
 40
1.5
 40
1.5
 40
1.5
 40
1.5
 40
1.5
309
CELLMARGIN_END
 94
        6
 95
        1
302
GRIDFORMAT
  1
GRIDFORMAT_BEGIN
 90
        0
 91
        1
 62
     0
 92
       -2
340
14
 93
        0
 40
0.045
309
GRIDFORMAT_END
 95
        2
302
GRIDFORMAT
  1
GRIDFORMAT_BEGIN
 90
        0
 91
        1
 62
     0
 92
       -2
340
14
 93
        0
 40
0.045
309
GRIDFORMAT_END
 95
        4
302
GRIDFORMAT
  1
GRIDFORMAT_BEGIN
 90
        0
 91
        1
 62
     0
 92
       -2
340
14
 93
        0
 40
0.045
309
GRIDFORMAT_END
 95
        8
302
GRIDFORMAT
  1
GRIDFORMAT_BEGIN
 90
        0
 91
        1
 62
     0
 92
       -2
340
14
 93
        0
 40
0.045
309
GRIDFORMAT_END
 95
       16
302
GRIDFORMAT
  1
GRIDFORMAT_BEGIN
 90
        0
 91
        1
 62
     0
 92
       -2
340
14
 93
        0
 40
0.045
309
GRIDFORMAT_END
 95
       32
302
GRIDFORMAT
  1
GRIDFORMAT_BEGIN
 90
        0
 91
        1
 62
     0
 92
       -2
340
14
 93
        0
 40
0.045
309
GRIDFORMAT_END
309
TABLEFORMAT_END
  1
CELLSTYLE_BEGIN
 90
        2
 91
        1
300
_HEADER
309
CELLSTYLE_END
300
CELLSTYLE
  1
TABLEFORMAT_BEGIN
 90
        5
170
     1
 91
        0
 92
        0
 62
   257
 93
        1
300
CONTENTFORMAT
  1
CONTENTFORMAT_BEGIN
 90
        0
 91
        0
 92
        4
 93
        0
300

 40
0.0
140
1.0
 94
        2
 62
     0
340
11
144
4.5
309
CONTENTFORMAT_END
171
     1
301
MARGIN
  1
CELLMARGIN_BEGIN
 40
1.5
 40
1.5
 40
1.5
 40
1.5
 40
1.5
 40
1.5
309
CELLMARGIN_END
 94
        6
 95
        1
302
GRIDFORMAT
  1
GRIDFORMAT_BEGIN
 90
        0
 91
        1
 62
     0
 92
       -2
340
14
 93
        0
 40
0.045
309
GRIDFORMAT_END
 95
        2
302
GRIDFORMAT
  1
GRIDFORMAT_BEGIN
 90
        0
 91
        1
 62
     0
 92
       -2
340
14
 93
        0
 40
0.045
309
GRIDFORMAT_END
 95
        4
302
GRIDFORMAT
  1
GRIDFORMAT_BEGIN
 90
        0
 91
        1
 62
     0
 92
       -2
340
14
 93
        0
 40
0.045
309
GRIDFORMAT_END
 95
        8
302
GRIDFORMAT
  1
GRIDFORMAT_BEGIN
 90
        0
 91
        1
 62
     0
 92
       -2
340
14
 93
        0
 40
0.045
309
GRIDFORMAT_END
 95
       16
302
GRIDFORMAT
  1
GRIDFORMAT_BEGIN
 90
        0
 91
        1
 62
     0
 92
       -2
340
14
 93
        0
 40
0.045
309
GRIDFORMAT_END
 95
       32
302
GRIDFORMAT
  1
GRIDFORMAT_BEGIN
 90
        0
 91
        1
 62
     0
 92
       -2
340
14
 93
        0
 40
0.045
309
GRIDFORMAT_END
309
TABLEFORMAT_END
  1
CELLSTYLE_BEGIN
 90
        3
 91
        2
300
_DATA
309
CELLSTYLE_END
  0
ENDSEC
  0
SECTION
  2
ACDSDATA
 70
     2
 71
     8
  0
ACDSSCHEMA
 90
        0
  1
AcDb_Thumbnail_Schema
  2
AcDbDs::ID
280
    10
 91
        8
  2
Thumbnail_Data
280
    15
 91
        0
101
ACDSRECORD
 95
        0
 90
        1
  2
AcDbDs::TreatedAsObjectData
280
     1
291
     1
101
ACDSRECORD
 95
        0
 90
        2
  2
AcDbDs::Legacy
280
     1
291
     1
101
ACDSRECORD
  1
AcDbDs::ID
 90
        3
  2
AcDs:Indexable
280
     1
291
     1
101
ACDSRECORD
  1
AcDbDs::ID
 90
        4
  2
AcDbDs::HandleAttribute
280
     7
282
     1
  0
ACDSSCHEMA
 90
        1
  1
AcDbDs::TreatedAsObjectDataSchema
  2
AcDbDs::TreatedAsObjectData
280
     1
 91
        0
  0
ACDSSCHEMA
 90
        2
  1
AcDbDs::LegacySchema
  2
AcDbDs::Legacy
280
     1
 91
        0
  0
ACDSSCHEMA
 90
        3
  1
AcDbDs::IndexedPropertySchema
  2
AcDs:Indexable
280
     1
 91
        0
  0
ACDSSCHEMA
 90
        4
  1
AcDbDs::HandleAttributeSchema
  2
AcDbDs::HandleAttribute
280
     7
 91
        1
284
     1
  0
ACDSRECORD
 90
        0
  2
AcDbDs::ID
280
    10
320
22
  2
Thumbnail_Data
280
    15
 94
     1461
310
89504E470D0A1A0A0000000D4948445200000100000000800803000000D36B473800000300504C5445212830FFFFFF2128300000000000000000000000000000000000000000000000000000330000660000990000CC0000FF0033000033330033660033990033CC0033FF0066000066330066660066990066CC0066FF0099
310
000099330099660099990099CC0099FF00CC0000CC3300CC6600CC9900CCCC00CCFF00FF0000FF3300FF6600FF9900FFCC00FFFF3300003300333300663300993300CC3300FF3333003333333333663333993333CC3333FF3366003366333366663366993366CC3366FF3399003399333399663399993399CC3399FF33CC00
310
33CC3333CC6633CC9933CCCC33CCFF33FF0033FF3333FF6633FF9933FFCC33FFFF6600006600336600666600996600CC6600FF6633006633336633666633996633CC6633FF6666006666336666666666996666CC6666FF6699006699336699666699996699CC6699FF66CC0066CC3366CC6666CC9966CCCC66CCFF66FF0066
310
FF3366FF6666FF9966FFCC66FFFF9900009900339900669900999900CC9900FF9933009933339933669933999933CC9933FF9966009966339966669966999966CC9966FF9999009999339999669999999999CC9999FF99CC0099CC3399CC6699CC9999CCCC99CCFF99FF0099FF3399FF6699FF9999FFCC99FFFFCC0000CC00
310
33CC0066CC0099CC00CCCC00FFCC3300CC3333CC3366CC3399CC33CCCC33FFCC6600CC6633CC6666CC6699CC66CCCC66FFCC9900CC9933CC9966CC9999CC99CCCC99FFCCCC00CCCC33CCCC66CCCC99CCCCCCCCCCFFCCFF00CCFF33CCFF66CCFF99CCFFCCCCFFFFFF0000FF0033FF0066FF0099FF00CCFF00FFFF3300FF3333
310
FF3366FF3399FF33CCFF33FFFF6600FF6633FF6666FF6699FF66CCFF66FFFF9900FF9933FF9966FF9999FF99CCFF99FFFFCC00FFCC33FFCC66FFCC99FFCCCCFFCCFFFFFF00FFFF33FFFF66FFFF99FFFFCCFFFFFF0000000D0D0D1A1A1A2828283535354343435050505D5D5D6B6B6B787878868686939393A1A1A1AEAEAEBB
310
BBBBC9C9C9D6D6D6E4E4E4F1F1F1FFFFFF0000000000000000000000000000000000000000000000000000000000002E4550F1000002704944415478DAED9D5BBA83200C84B3FF45F1C2C6CED16ABD54FB4924E350669E95C0CF450D099A55559E643FA004171B800B5DBDE9F533EDAFF71964023035E5EA705F5DF7F5F226
310
00BC5AE29BE77975739B00DEBD7873993C29841D408DD66F19340560A86EC5C75B7E95D70C8083EA5660B02B9318C0B874D5B7302268004050F33F8A6605B0EDA6EA0896D239010476FF7E109002B0F00F9B7910500200B4FF6D841100A4FDB3194200B00FFB91001F009C6763B44408C0609E9DC1141D00A46B6BB0C507C0
310
80AEBD7F6302403805800008A780419DDB9C4F01011000DFC74DD7009C0F0F8D00AD0102C0F7220405A0576101D0B700DF22D8B743442E31DC1020758A22DDE2AC00501B23A4FB0206D91AC8C43B43D17BC31B0BA4DBE3C1DBC3ABE27903240209AC1719DE1099B041B02D983A48CA0210ECA3A4A8C3E42A47C91DC6C99107
310
4AE68A0C8ECB6A2154D6CC6EA6032C61D3170CB2015857DF0361BEEBE4EE66C2E50BA3E53FE2E573A94136004B9B36CDBB9D31D156C6C8BEEDCE0BA801F49E332449922449922449922449922449922449922449922449D2EF8B354002167C91325829B05E3E00D811771D80A7319D03F08D00D2DC61200068E628250064E2
310
A409408A9B9A6E00B8C4C95000BEACD4344D4DCC02C00A009539CA0B0093394A0D20D3012825E0CC4B4E061A0285E70A0B001A002077981C402C81E2CC510128AED16D00C187AB0B403000EFE914C900041C7F987804401881DE0178B2C705E0110031045CBFD929F653F40EC07D444FB26802BE03140440009E01509F80F3
310
676B0220000F01A84EE00E8082CA08002B806C1000FEA3FA0440000440000209B80F53130018803E0225FF00B2DCBE484D7599850000000049454E44AE426082
  0
ENDSEC
  0
EOF
